Login or Register to remove this ad. | Advertise Here

Cosmo Canyon (Final Fantasy VII) Guitar Tab

Submitted: Jun 28, 2009 by SpiderTemplarius (Last updated: Dec 04, 2010)

4.416665
Average: 4.4 (24 votes)
Download | Listen
Game: Final Fantasy VII
Composer(s): Nobuo Uematsu
Style: Arrangement, Fingerstyle
Series: Final Fantasy

This song is also called Valley of the Fallen Star

AutoScroll: Slow | Medium | Fast
Final Fantasy VII - Cosmo Canyon

Composed By: Nobuo Uematsu
Arranged By: SpiderTemplarius

     S S S S S S S S S S S S S S S S   S S S S S S S S S S S S S S S S
E||----------------------------------|----------------------------------|
B||----------------------------------|----------------------------------|
G||--------0-----0---0-----0-----0---|-------0-----0---0-----0-----0----|
D||--0h2-2---2-----2---2-----2-----2-|-0h2-2---2-----2---2-----2-----2--|
A||------------2---------2-----2-----|-----------2---------2-----2------|
E||--0---------------0---------------|-0---------------0----------------|


     S S S S S S S S S S S S S S S S   S S S S S S S S H
E||----------------------------------|-----------------0----------------|
B||--------0-----0---0-----0-----0---|-----------------0----------------|
G||--0h2-2---2-----2---2-----2-----2-|-------0-----0---0----------------|
D||------------2---------2-----2-----|-0h2-2---2-----2-2----------------|
A||--0---------------0---------------|-----------2-----2----------------|
E||----------------------------------|-0---------------0----------------|


     S S S S S S S S S S S S S S S S   S S S S S S S S S S S S S S S S
E||----------------------------------|----------------------------------|
B||----------------------------------|-0---0---0---------0-------0------|
G||*-------------------0-------0-2-0-|-----------2-0-2-----2---2---2----|
D||*-2---2---2-----0-2---2---2-------|---0---0---------0-----0-------0--|
A||----2---2-----2---------2---------|----------------------------------|
E||--0---------0---------------------|-3--------------------------------|


     S S S S S S S S S S Q       E     S S S E   S S S S S S S S S S S
E||----------------------------------|----------------------------------|
B||------------0---------------------|----------------------------------|
G||--2-----0-2---2---0---------------|-0---------0-----0-----0-----0----|
D||----2-----------0---2-2-------0---|---2-0-2-----2-----2-----2-----2--|
A||--0---0-----------3---------------|---------------2-----2-----2------|
E||----------------------------------|-0---------------0----------------|

1st Ending--------------------------- 2nd Ending------------------------ 
     S S S E   S S S H                 S S S E   S S S Q       E   E  
E||------------------0--------------||-----------------0---------------||
B||------------------0--------------||-----------------0-------0---3---||
G||--0---------0-----0-------------*||-0---------0-----0---------------||
D||----2-0-2-----2---2-------------*||---2-0-2-----2---2---------------||
A||----------------2-2--------------||---------------2-2---------------||
E||--0---------------0--------------||-0---------------0---------------||


     S S S S S E   S S S S S S S S S   S S S S S E   S S S S S S S S S
E||--0-------0-2---0-----------------|-0-------3-2---0------------------|
B||----0---0---------3-----3-----0-3-|---0---0---------3-----2h3--------|
G||*-----0-------------0-----0-------|-----0-------------0-------0---0--|
D||*---------------------0-----0-----|---------------------0-------0----|
A||----------------------------------|----------------------------------|
E||--0---------------3---------------|-0---------------3----------------|

                                      1st Ending------------------------ 
     S S S S S S S S S S S S S S S S   S S S S S S S S S S S S E   E  
E||----------------------------------|---------------------------------||
B||------------0-----1-----0h1-3-----|-0-----0-----0-----------0---3---||
G||--2-----0-2---2-----0---------0---|---0-----0-----0-2---2----------*||
D||----2-----------0-----2---------2-|-----0-----0-------0---0--------*||
A||--0---0-----------3---------------|---------------------------------||
E||----------------------------------|-3---------------2---------------||

2nd Ending-------------------------------------------------------------- 
     S S S S S S S S S S S S S S S S   S S S S S S S S Q       S E   S
E||--0-----0-----0---3-----3-----3---|-8-----8-----8---8-------3-0-----||
B||----1-----1-----1---1-----1-----1-|---8-----8-----8---------------3-||
G||------0-----0---------0-----0-----|-----9-----9---------------------||
D||----------------------------------|---------------------------------||
A||--3---------------3---------------|---------------------------------||
E||----------------------------------|-8-------------------------------||

     S S S S S S S S S S S S S S S S   S S S S S S S S H              
E||--0-----0-----0---0-----0-----0---|-0-----0-----0---0----------------|
B||----0-----0-----0---0-----0-----0-|---0-----0-----0-0----------------|
G||------0-----0---------0-----0-----|-----0-----0-----0----------------|
D||----------------------------------|-----------------2----------------|
A||----------------------------------|-----------------2----------------|
E||--0---------------0---------------|-0---------------0----------------|

23 comments on Cosmo Canyon

Nice!

5

Nice!

Very cool

5

Very cool

Definitely nice, keep up the

5

Definitely nice, keep up the good work!

Wow, awesome. Can't believe I

5

Wow, awesome. Can't believe I didn't notice this before.

Thank you all for your kind

Thank you all for your kind words!

I love this. There's

5

I love this.
There's definitely something original about this arrangement (:

Woohoo!

5

Oh man, this is inspirational! I feel like getting my life together now...

Tabs

Hey guys that tabs are on electric guitar?

Great job

Helped me put together this slight variation of your arrangement:
http://www.youtube.com/watch?v=OLA3ZmV6uIw

Cheers :)

Spider you don't make enough

5

Spider you don't make enough tabs....this is fantastic.

Best version of this ever.

5

Best version of this ever.

I'm afraid I couldnt get to

3

I'm afraid I couldnt get to grips with this at all, well done though, seems a lot of other people are enjoying it

Enzemo said I'm afraid I

Enzemo said

I'm afraid I couldnt get to grips with this at all, well done though, seems a lot of other people are enjoying it

What seems to be the issue? You shouldn't rate tabs based on how easy they are to play.

I didn't rate it on

I didn't rate it on difficulty, I can play it just fine, the issue was that it sounded far from cosmo canyon and I disliked it, and so I rated it accordingly. In my opinion it's not a very good interpretation, and the new rhythm kills the original song, but like I said it's good that some people can enjoy this; I'm not here to try to offend anyone. I'm rating from my opinion, just like everyone else here; we all hear music differently :)

Agreed, rate the tab based on

Agreed, rate the tab based on accuracy.

Or if it's an arrangement, rate it on how much you like the interpretations along with accuracy.

Okay, well I don't think it's

Okay, well I don't think it's accurate, and I dont like the arrangement, happy now?

Not really. This is one of

Not really. This is one of the better tabs on this site, its very simple, its got great timing, follows the tune exactly, and it catches all the right chord changes. If you really felt that it isn't accurate, you probably don't rate any tab at a 5/5, and I'm not happy about that.

"I'm afraid I couldnt get to grips with this at all, well done though, seems a lot of other people are enjoying it"

That initial statement you made really sounds like you can't read music very well. This is a pretty simple song and if you "couldnt get to grips with this at all" it just means you need more practice. It's hard to interpret what you said as anything else.

Since you don't think it's accurate, which part do you dislike? I'm sure, for arguement's sake, you could show a small example of a problem with this song. Or are you just being a dick? The latter sounds more likely from your reaction to me.

Or do you just not know the difference between an arrangement and a transcription?

I'm sorry, I wasn't aware its

I'm sorry, I wasn't aware its a requirement to play guitar fluently to post your opinion to this website. Clearly I wasn't trying to be a dick which is why I mentioned it looks like a lot of people are enjoying it.

The part that I disliked was that it sounded too far from Cosmo Canyon for my personal liking. I listened to the video of an adaptation that was linked and while I appreciate the music, in reference to Cosmo Canyon I felt it didn't fit.

Try not to be an asshole now and then, and remember that other people can have opinions too. Do you think every great album and movie doesn't get a bad review every now and then?
Keep on trolling, I'm going to continue to play the songs I enjoy and post my opinions on the ones I don't regardless of what you say.

Your shitty opinion is no

Your shitty opinion is no more exempt from criticism than the arrangement it's based on.

I didn't say you seemed like

I didn't say you seemed like a dick for your original comment on the tab, I said you sounded like a dick because of this snarky comment directed at me.

"Okay, well I don't think it's accurate, and I dont like the arrangement, happy now?"

Instead of calling me an asshole, try paying attention to the order of our comments.

I was not trolling in the

I was not trolling in the slightest.

I understand that everything can get a bad review, I asked you to point out a part that could be fixed, and you've yet to do that.

I'm only sticking up for a good tab here, I'd like continue to see more good tabs like this one.

Be careful Enzemo. Nazis may

Be careful Enzemo. Nazis may have left France, but you might find some still lurking on gametabs.

Arguably the worst

1

Arguably the worst re-imagination I have ever heard of this song.

I question if the composer has actually ever heard Cosmo Canyon.

Whilst musically it works, this is so far removed from the original track it shouldn't be on this site