Login or Register to remove this ad. | Advertise Here

Comical (Final Fantasy VII) Guitar Tab

Submitted: Jun 24, 2011 by Kabukibear

4.75
Average: 4.8 (4 votes)
Download | Listen
Game: Final Fantasy VII
Composer(s): Nobuo Uematsu
Style: Arrangement, Fingerstyle
Series: Final Fantasy

AutoScroll: Slow | Medium | Fast

Comical                                   
~Final Fantasy VII~
Composed by: Nobuo Uematsu
Arranged by: Justin Lincoln

*Note: This piece is not actually in the game or OST which is why
you've probably never heard it before. It was used in a scene inside
the Honeybee Inn that never made it into the game. I just saw the 
deleted scene today and thought it would be fun to do a quick arrangement
of the music. Straightforward and simple. Enjoy!

Dropped D 
(Capo 3)



     Q    E  E  E  E  E  E     Q    E  E  E  E  E  E   
E||-------------------------|-------------------------|
B||-------------------------|-------------------------|
G||-------------------------|-------------------------|
D||-------------------------|-------------------------|
A||--0----3--4--------------|--0----3--4--------------|
D||-------------2--2--4--2--|-------------2--2--4--2--|


  Q    E  E  E  E  E  E     H        H           Q    E  E  E  E  E  E   
-------------------------|--------------------|-------2--0--------------|
-------------------------|--------------------|-------------------0-----|
-------------------------|--------------------|--2-------------5-----3--|
-------------------------|--------------------|-------------------------|
--0----3--4--------------|--0-----------------|--0----3--4--------------|
-------------2--2--4--2--|-----------2--------|-------------2--2--4--2--|


  E  E  E  E  E  E  E  E     Q    E  E  E  E  E  E     E  E  E  Q    E  E  E   
--------2--0--------------|-------2--0--------------|-------------------------|
--------------------------|-------------------0-----|-------------------------|
--2--2--------------------|--2-------------5-----3--|--2----------------------|
--------------------------|-------------------------|-------------------------|
--0-----3--4--------------|--0----3--4--------------|--0--------0-------------|
--------------2--2--4--2--|-------------2--2--4--2--|-----2--5-------2--5--6--|


  Q    E  E  E  E  E  E     E  E  E  E  E  E  E  E     Q    E  E  E  E  E  E   
-------2--0--------------|--------2--0--------------|-------2--0--------------|
-------------------0-----|--------------------------|-------------------0-----|
--2-------------5-----3--|--2--2--------------------|--2-------------5-----3--|
-------------------------|--------------------------|-------------------------|
--0----3--4--------------|--0-----3--4--------------|--0----3--4--------------|
-------------2--2--4--2--|--------------2--2--4--2--|-------------2--2--4--2--|


  E  E  E  Q    E  E  E     Q    E  E  E  E  E  E     E  E  E  E  E  E  E  E   
-------------------------|-------7--5-----1--0-----|--------7--5--------------|
-------------------------|--3-------------------4--|--3--3--------------------|
--2----------------------|-------------------------|--------------------------|
-------------------------|-------------------------|--------------------------|
--0--------0----------0--|-------------0--0--2--0--|--------------0--0--2--0--|
-----2--5-------2--5-----|--0----3--4--------------|--0-----3--4--------------|


  Q    E  E  E  E  E  E     E  E  E  Q    E  E  E     Q    E  E  E  E  E  E   
-------7--5-----1--0-----|-------------------------|-------2--0--------------|
--3-------------------4--|--3----------------------|-------------------0-----|
-------------------------|-------------------------|--2-------------5-----3--|
-------------------------|-------------------------|-------------------------|
-------------0--0--2--0--|-----0--2--3----3--2--1--|--0----3--4--------------|
--0----3--4--------------|--0----------------------|-------------2--2--4--2--|


  E  E  E  E  E  E  E  E     Q    E  E  E  E  E  E     E  E  E  Q    Q.      
--------2--0--------------|-------2--0--------------|-----------------------|
--------------------------|-------------------0-----|-----------------------|
--2--2--------------------|--2-------------5-----3--|--2--------------------|
--------------------------|-------------------------|-----------------------|
--0-----3--4--------------|--0----3--4--------------|--0--------0-----------|
--------------2--2--4--2--|-------------2--2--4--2--|-----2--5--------------|


  E  E  E  E  E  E  E  E     E  E  E  Q    E  E  E     E  E  E  E  E  E  E  E   
--------------------------|-------------------------|-----3--3--3--3--3--2--2--|
-----0--0--0--0--0--------|-------------------------|-----5--5--5--5--5--4--4--|
-----1--1--1--1--1--3--3--|--2----------------------|--------------------------|
--------------------5--5--|--4----------------------|--------------------------|
--------------------------|--------0--3----2--0-----|--------------------------|
--2-----------------------|--0--4----------------4--|--5-----------------------|


  E  E  E  Q    E  E  E     E  E  E  E  E  E  E  E   
--0----------------------|--------------------------|
--2----------------------|-----0--0--0--0--0--------|
-------------------------|-----1--1--1--1--1--3--3--|
-------------------------|--------------------5--5--|
--0----------------------|--------------------------|
-----1--2--5----4--2--1--|--2-----------------------|


  E  E  E  Q    E  E  E       Q    E  E  E  E  E  E     Q    E  E  E  E  E  E   
--------------------------||-------------------------|-------------------------|
--------------------------||-------------------------|-------------------------|
--2----------------------*||-------------------------|-------------------------|
--4----------------------*||-------------------------|-------------------------|
--------0--3----2--0------||--0----3--4--------------|--0----3--4--------------|
--0--4----------------4---||-------------2--2--4--2--|-------------2--2--4--2--|


                                     ^                              
  Q    E  E  E  E  E  E     H        H           W                  
-------------------------|-----------3--------|--L----------------||
-------------------------|-----------2--------|--L----------------||
-------------------------|-----------0--------|--L----------------||
-------------------------|-----------2--------|--L----------------||
--0----3--4--------------|--0--------0--------|--L----------------||
-------------2--2--4--2--|--------------------|-------------------||




Duration Legend
---------------
W - whole
H - half
Q - quarter
E - 8th
S - 16th
T - 32nd
X - 64th
. - note dotted
|-n-|  - n-tuplets


Tablature Legend
----------------
L - tied note
^ - brush up

1 comment on Comical

Nice!

Great fun to play!