Login or Register to remove this ad. | Advertise Here

Cid's Theme (Final Fantasy VII) Guitar Tab

Submitted: Jun 02, 2010 by Daugreano (Last updated: Jun 03, 2010)

5
Average: 5 (1 vote)
Download | Listen
Game: Final Fantasy VII
Composer(s): Nobuo Uematsu
Style: Transcription
Series: Final Fantasy

AutoScroll: Slow | Medium | Fast
Title: Cid's Theme
Game: Final Fantasy VII
Composer: Nobuo Uematsu
Tabbed by: Daugreano

Guitar: 
    .                                       .                          .
   Q     E   Q    Q      H     Q    Q      Q     Q    H     W         Q     E   Q    Q
E|---------------------|-----------------|-----------------|--------|---------------------|
B|---------------------|-----------------|-----------------|--------|---------------------|
G|---------------------|-----------------|-----------------|--------|---------------------|
D|---------------------|------------7----|-8---------------|--------|-----------7---------|
A|-----------10---8----|-10----10--------|-------10--------|--------|----------------10---|
E|-8-----8-------------|-----------------|-----------10----|--------|-10----10------------|
                      .                                   .         .
   H     Q    Q      Q     E   H       H     Q    Q      Q     E   Q     E     H     Q    Q
E|-----------------|-----------------|-----------------|---------------------|-----------------|
B|-----------------|-----------------|-----------------|---------------------|-----------------|
G|-----------------|-----------------|-----------------|-----------------7---|-8-----7----10---|
D|-7-----7----9----|-10----7---------|-------7---------|-7-----9---10--------|-----------------|
A|-----------------|-----------7-----|------------10---|---------------------|-----------------|
E|-----------------|-----------------|-----------------|---------------------|-----------------|
    .
   Q     E   H       W        Q     E   H       H     Q    Q      W        H     E   E   E   E   
E|-----------------|--------|-----------------|-----------------|--------|-----------------------|
B|-----------------|--------|-----------------|-----------------|--------|-----------------------|
G|-8---------------|--------|-7---------------|-----------------|--------|-------12--10--12--13--|
D|-------10--------|--------|-------8---------|-----------------|--------|-----------------------|
A|-----------10----|--------|-----------10----|-------8----11---|-10-----|-----------------------|
E|-----------------|--------|-----------------|-----------------|--------|-----------------------|
                                     .
   W        H     E   E   E   E     Q     E   H       H     E   E   E   E     w
E|--------|-----------------------|-----------------|-----------------------|--------|
B|--------|-----------------------|-----------16----|-------15------15--16--|--------|
G|-15-----|-------13--12--13--15--|-12--------------|-----------17----------|-17-----|
D|--------|-----------------------|-------13--------|-----------------------|--------|
A|--------|-----------------------|-----------------|-----------------------|--------|
E|--------|-----------------------|-----------------|-----------------------|--------|
                                 .        .
   H     E   E   E   E     Q    H        H      Q      W        H     E   E   E   E
E|-----------------------|-------------|-------------|--------|-----------------------|
B|-----------------------|-------------|-------------|--------|-----------------------|
G|-------10--12--13--10--|-12---15-----|--------12---|-15-----|-------13--12--13--15--|
D|-----------------------|-------------|-------------|--------|-----------------------|
A|-----------------------|-------------|-------------|--------|-----------------------|
E|-----------------------|-------------|-------------|--------|-----------------------|
    .                                         .                       .
   Q     E   H       H     E   E   E   E     Q     E   H       H     Q     E     W
E|-----------------|-----------------------|-15--------------|-----------------|--------|
B|-----------16----|-------15------15--16--|-------16--------|-------15----16--|-16-----|
G|-12--------------|-----------17----------|-----------17----|-----------------|--------|
D|-------13--------|-----------------------|-----------------|-----------------|--------|
A|-----------------|-----------------------|-----------------|-----------------|--------|
E|-----------------|-----------------------|-----------------|-----------------|--------|



1 comment on Cid's Theme

Completely amazing

5

Completely amazing