Login or Register to remove this ad. | Advertise Here

Cid's Theme (Final Fantasy VII) Bass Tab

Submitted: Jul 06, 2009 by auriplane (Last updated: Jul 06, 2009)

5
Average: 5 (1 vote)
Download | Listen
Game: Final Fantasy VII
Composer(s): Nobuo Uematsu
Style: Transcription
Series: Final Fantasy

AutoScroll: Slow | Medium | Fast
                 Final Fantasy VII - Cid's Theme BASS TAB
                        Song by Nobuo Uematsu

                  Tabbed by auriplane (crystal@panix.com)

This tab is inspired by (but not based on) Gnilp's excellent recording
of the song.

Four-string bass, standard tuning.

      Part A

G |----------------|----------------|----------------|----------------|
D |----------------|----------------|----------------|----------------|
A |333---333-------|666---666-------|----------------|----------------|
E |----------------|----------------|333---333-------|333---333-------|
        
G |----------------|----------------|----------------|----------------|
D |----------------|----------------|----------------|----------------|
A |555---555-------|----------------|----------------|----------------|
E |----------------|111---111-------|555---555-------|555---555-------|
                
G |----------------|----------------|----------------|----------------|
D |----------------|----------------|----------------|----------------|
A |----------------|----------------|333---333-------|333---333-------|
E |111---111-------|444---444-------|----------------|----------------|
        
G |----------------|----------------|----------------|----------------|
D |----------------|----------------|----------------|----------------|
A |----------------|----------------|----------------|----------------|
E |333---333-------|333---333-------|333---333-------|333---333-------|
        
      Part B        

G |----------------|----------------|----------------|----------------|
D |----------------|----------------|----------------|----------------|
A |6-----------6---|5-----------5---|3-----------3---|----------------|
E |----------------|----------------|----------------|6-----------6---|
                                                              
G |----------------|----------------|----------------|----------------|
D |----------------|----------------|----------------|----------------|
A |----------------|----------------|6-----------6---|----------------|
E |4-----------4---|6-----------6---|----------------|6-----------6---|
                                                              
G |----------------|----------------|----------------|----------------|
D |----------------|----------------|----------------|----------------|
A |6-----------6---|5-----------5---|3-----------3---|----------------|
E |----------------|----------------|----------------|6-----------6---|
                                                              
G |----------------|----------------|----------------|----------------|
D |----------------|----------------|----------------|----------------|
A |----------------|----------------|6---------------|L---------------|
E |4-----------4---|6-----------6---|----------------|----------------|

    Repeat back to Part A.