Login or Register to remove this ad. | Advertise Here

Buried in the Snow (Final Fantasy VII) Bass/Guitar Tab

Submitted: Oct 24, 2011 by JordanVS

5
Average: 5 (2 votes)
Download | Listen
Game: Final Fantasy VII
Composer(s): Nobuo Uematsu
Style: 2 or more instruments, Transcription
Series: Final Fantasy

This song is also called Icicle Inn, Great Glacier

AutoScroll: Slow | Medium | Fast
Buried in the Snow
Final Fantasy VII                                                              
Nobuo Uematsu


Lead



     H.              H.              H.              H.            
E||---------------|---------------|---------------|---------------|
B||---------------|---------------|---------------|---------------|
G||---------------|---------------|---------------|---------------|
D||---------------|---------------|---------------|---------------|
A||---------------|---------------|---------------|---------------|
E||---------------|---------------|---------------|---------------|



  H.              H.              H.              H.              H.            
---------------|---------------|---------------|---------------|---------------|
---------------|---------------|---------------|---------------|---------------|
---------------|---------------|---------------|---------------|---------------|
---------------|---------------|---------------|---------------|---------------|
---------------|---------------|---------------|---------------|---------------|
---------------|---------------|---------------|---------------|---------------|


  H.              H.              H        Q       H.            
---------------|---------------|----------------|--7------------|
---------------|---------------|-----------8----|---------------|
---------------|---------------|--9-------------|---------------|
---------------|---------------|----------------|---------------|
---------------|---------------|----------------|---------------|
---------------|---------------|----------------|---------------|


  H.              H.              H        Q       H.            
---------------|---------------|----------------|--7------------|
---------------|---------------|-----------7----|---------------|
---------------|---------------|--7-------------|---------------|
---------------|---------------|----------------|---------------|
---------------|---------------|----------------|---------------|
---------------|---------------|----------------|---------------|


  H.              H.              H        Q       H.            
---------------|---------------|----------------|--7------------|
---------------|---------------|-----------8----|---------------|
---------------|---------------|--9-------------|---------------|
---------------|---------------|----------------|---------------|
---------------|---------------|----------------|---------------|
---------------|---------------|----------------|---------------|


  H.              H.              H        Q       H.            
---------------|---------------|----------------|--7------------|
---------------|---------------|-----------8----|---------------|
---------------|---------------|--7-------------|---------------|
---------------|---------------|----------------|---------------|
---------------|---------------|----------------|---------------|
---------------|---------------|----------------|---------------|


  H.              H.              H        Q       H.            
---------------|---------------|----------------|--7------------|
---------------|---------------|-----------8----|---------------|
---------------|---------------|--9-------------|---------------|
---------------|---------------|----------------|---------------|
---------------|---------------|----------------|---------------|
---------------|---------------|----------------|---------------|


  H.              H.              H        Q       H.            
---------------|---------------|----------------|--7------------|
---------------|---------------|-----------7----|---------------|
---------------|---------------|--7-------------|---------------|
---------------|---------------|----------------|---------------|
---------------|---------------|----------------|---------------|
---------------|---------------|----------------|---------------|


  H.              H.              H        Q       H.            
---------------|---------------|----------------|--7------------|
---------------|---------------|-----------5----|---------------|
---------------|---------------|--5-------------|---------------|
---------------|---------------|----------------|---------------|
---------------|---------------|----------------|---------------|
---------------|---------------|----------------|---------------|


  H.              H         Q       H.              H.            
---------------|-----------------|---------------|---------------|
---------------|-----------10----|--7------------|--L------------|
---------------|-----------------|---------------|---------------|
---------------|-----------------|---------------|---------------|
---------------|-----------------|---------------|---------------|
---------------|-----------------|---------------|---------------|


  H.              H.               H         Q        H.            
---------------|---------------|------------------|--14------------|
--L------------|--L------------|--12--------15----|----------------|
---------------|---------------|------------------|----------------|
---------------|---------------|------------------|----------------|
---------------|---------------|------------------|----------------|
---------------|---------------|------------------|----------------|


  H.              H.               H         Q        H.            
---------------|---------------|------------------|--13------------|
---------------|---------------|--12--------15----|----------------|
---------------|---------------|------------------|----------------|
---------------|---------------|------------------|----------------|
---------------|---------------|------------------|----------------|
---------------|---------------|------------------|----------------|


  H.              H.               H         Q        H.            
---------------|---------------|------------------|--17------------|
---------------|---------------|------------15----|----------------|
---------------|---------------|--16--------------|----------------|
---------------|---------------|------------------|----------------|
---------------|---------------|------------------|----------------|
---------------|---------------|------------------|----------------|


  H.              H.               H         Q        H.            
---------------|---------------|------------------|--17------------|
---------------|---------------|------------15----|----------------|
---------------|---------------|--16--------------|----------------|
---------------|---------------|------------------|----------------|
---------------|---------------|------------------|----------------|
---------------|---------------|------------------|----------------|


  H.              H.               H         Q        H.            
---------------|---------------|------------------|--14------------|
---------------|---------------|--12--------15----|----------------|
---------------|---------------|------------------|----------------|
---------------|---------------|------------------|----------------|
---------------|---------------|------------------|----------------|
---------------|---------------|------------------|----------------|


  H.              H.               H         Q        H.            
---------------|---------------|------------------|--13------------|
---------------|---------------|--13--------15----|----------------|
---------------|---------------|------------------|----------------|
---------------|---------------|------------------|----------------|
---------------|---------------|------------------|----------------|
---------------|---------------|------------------|----------------|


  H.              H.               H         Q        H.            
---------------|---------------|------------------|--17------------|
---------------|---------------|--12--------15----|----------------|
---------------|---------------|------------------|----------------|
---------------|---------------|------------------|----------------|
---------------|---------------|------------------|----------------|
---------------|---------------|------------------|----------------|


  H.              H         Q        H.              H.            
---------------|-----------15----|--14------------|---------------|
---------------|-----------------|----------------|---------------|
---------------|-----------------|----------------|---------------|
---------------|-----------------|----------------|---------------|
---------------|-----------------|----------------|---------------|
---------------|-----------------|----------------|---------------|


  H.              H.             
---------------|---------------||
---------------|---------------||
---------------|---------------||
---------------|---------------||
---------------|---------------||
---------------|---------------||




Bass



     H        Q       H.              H.              H.            
G||-----------5----|--L------------|--L------------|--L------------|
D||----------------|---------------|---------------|---------------|
A||----------------|---------------|---------------|---------------|
E||----------------|---------------|---------------|---------------|


  H        Q       H.              H.              H.            
-----------4----|--L------------|--L------------|--L------------|
----------------|---------------|---------------|---------------|
----------------|---------------|---------------|---------------|
----------------|---------------|---------------|---------------|


  H        Q       H.              H.              H.            
-----------5----|--L------------|--L------------|--L------------|
----------------|---------------|---------------|---------------|
----------------|---------------|---------------|---------------|
----------------|---------------|---------------|---------------|


  H        Q       H.              H.              H.            
-----------0----|--L------------|--L------------|--L------------|
----------------|---------------|---------------|---------------|
----------------|---------------|---------------|---------------|
----------------|---------------|---------------|---------------|


  H        Q       H.              H.              H.            
-----------5----|--L------------|--L------------|--L------------|
----------------|---------------|---------------|---------------|
----------------|---------------|---------------|---------------|
----------------|---------------|---------------|---------------|


  H        Q       H.              H.              H.            
-----------4----|--L------------|--L------------|--L------------|
----------------|---------------|---------------|---------------|
----------------|---------------|---------------|---------------|
----------------|---------------|---------------|---------------|


  H        Q       H.              H.              H.            
-----------5----|--L------------|--L------------|--L------------|
----------------|---------------|---------------|---------------|
----------------|---------------|---------------|---------------|
----------------|---------------|---------------|---------------|


  H        Q       H.              H.              H.            
-----------0----|--L------------|--L------------|--L------------|
----------------|---------------|---------------|---------------|
----------------|---------------|---------------|---------------|
----------------|---------------|---------------|---------------|


  H        Q       H.              H.              H.            
-----------5----|--L------------|--L------------|--L------------|
----------------|---------------|---------------|---------------|
----------------|---------------|---------------|---------------|
----------------|---------------|---------------|---------------|


  H        Q       H.              H.              H.            
-----------4----|--L------------|--L------------|--L------------|
----------------|---------------|---------------|---------------|
----------------|---------------|---------------|---------------|
----------------|---------------|---------------|---------------|


  H        Q       H.              H.              H.            
-----------2----|--L------------|--L------------|--L------------|
----------------|---------------|---------------|---------------|
----------------|---------------|---------------|---------------|
----------------|---------------|---------------|---------------|


  H        Q       H.              H.              H.            
-----------0----|--L------------|--L------------|--L------------|
----------------|---------------|---------------|---------------|
----------------|---------------|---------------|---------------|
----------------|---------------|---------------|---------------|


  H        Q       H.              H.              H.            
-----------9----|--L------------|--L------------|--L------------|
----------------|---------------|---------------|---------------|
----------------|---------------|---------------|---------------|
----------------|---------------|---------------|---------------|


  H        Q       H.              H.              H.            
-----------7----|--L------------|--L------------|--L------------|
----------------|---------------|---------------|---------------|
----------------|---------------|---------------|---------------|
----------------|---------------|---------------|---------------|


  H        Q       H.              H.              H.            
-----------5----|--L------------|--L------------|--L------------|
----------------|---------------|---------------|---------------|
----------------|---------------|---------------|---------------|
----------------|---------------|---------------|---------------|


  H        Q       H.              H.              H.            
-----------4----|--L------------|--L------------|--L------------|
----------------|---------------|---------------|---------------|
----------------|---------------|---------------|---------------|
----------------|---------------|---------------|---------------|


  H        Q       H.              H.              H.            
-----------9----|--L------------|--L------------|--L------------|
----------------|---------------|---------------|---------------|
----------------|---------------|---------------|---------------|
----------------|---------------|---------------|---------------|


  H        Q       H.              H.              H.            
-----------7----|--L------------|--L------------|--L------------|
----------------|---------------|---------------|---------------|
----------------|---------------|---------------|---------------|
----------------|---------------|---------------|---------------|


  H        Q       H.              H.              H.            
-----------5----|--L------------|--L------------|--L------------|
----------------|---------------|---------------|---------------|
----------------|---------------|---------------|---------------|
----------------|---------------|---------------|---------------|


  H        Q       H.              H        Q       H.             
----------------|---------------|-----------4----|--L------------||
-----------4----|--L------------|----------------|---------------||
----------------|---------------|----------------|---------------||
----------------|---------------|----------------|---------------||