Login or Register to remove this ad. | Advertise Here

Buried in the Snow (Final Fantasy VII) Guitar Tab

Submitted: Aug 05, 2010 by Daugreano (Last updated: Aug 05, 2010)

0
Download | Listen
Game: Final Fantasy VII
Composer(s): Nobuo Uematsu
Style: Alternate picking, Transcription
Series: Final Fantasy

This song is also called Icicle Inn

AutoScroll: Slow | Medium | Fast
Song: Buried in the Snow / Icicle Inn
Game: Final Fantasy VII
Composer: Nobuo Uematsu
Tabbed by: Daugreano

Guitar: 

   H     Q      H.       H.       H.       H     Q      H.       H.       H.
E|------------|--------|--------|--------|------------|--------|--------|--------|
B|------------|-0------|-L------|-L------|------------|-0------|-L------|-L------|
G|-------0----|--------|--------|--------|------------|--------|--------|--------|
D|-2----------|--------|--------|--------|-0-----4----|--------|--------|--------|
A|------------|--------|--------|--------|------------|--------|--------|--------|
E|------------|--------|--------|--------|------------|--------|--------|--------|

   H     Q      H.       H.       H.       H     Q      H.       H.       H.
E|------------|--------|--------|--------|------------|--------|--------|--------|
B|------------|-0------|-L------|-L------|------------|-0------|-L------|-L------|
G|-------0----|--------|--------|--------|-------0----|--------|--------|--------|
D|-2----------|--------|--------|--------|-0----------|--------|--------|--------|
A|------------|--------|--------|--------|------------|--------|--------|--------|
E|------------|--------|--------|--------|------------|--------|--------|--------|

   H     Q      H.       H.       H.       H     Q      H.       H.       H.
E|------------|--------|--------|--------|------------|--------|--------|--------|
B|------------|-0------|-L------|-L------|------------|-0------|-L------|-L------|
G|-------0----|--------|--------|--------|------------|--------|--------|--------|
D|-2----------|--------|--------|--------|-0-----4----|--------|--------|--------|
A|------------|--------|--------|--------|------------|--------|--------|--------|
E|------------|--------|--------|--------|------------|--------|--------|--------|

   H     Q      H.       H.       H     Q      H.       H.       H.       H.
E|------------|--------|--------|------------|--------|--------|--------|--------|
B|------------|-0------|-L------|-L----------|--------|--------|--------|--------|
G|------------|--------|--------|-------2----|--------|--------|--------|--------|
D|-------2----|--------|--------|------------|-4------|-L------|-L------|-L------|
A|-3----------|--------|--------|------------|--------|--------|--------|--------|
E|------------|--------|--------|------------|--------|--------|--------|--------|

   H     Q      H.       H.       H.       H     Q      H.       H.       H.
E|------------|-2------|-L------|-L------|------------|-1------|-L------|-L------|
B|-0-----3----|--------|--------|--------|-0-----3----|--------|--------|--------|
G|------------|--------|--------|--------|------------|--------|--------|--------|
D|------------|--------|--------|--------|------------|--------|--------|--------|
A|------------|--------|--------|--------|------------|--------|--------|--------|
E|------------|--------|--------|--------|------------|--------|--------|--------|

   H     Q      H.       H.       H.       H     Q      H.       H.       H.
E|------------|-5------|-L------|-L------|------------|-5------|-L------|-L------|
B|-0-----3----|--------|--------|--------|-0-----3----|--------|--------|--------|
G|------------|--------|--------|--------|------------|--------|--------|--------|
D|------------|--------|--------|--------|------------|--------|--------|--------|
A|------------|--------|--------|--------|------------|--------|--------|--------|
E|------------|--------|--------|--------|------------|--------|--------|--------|

   H     Q      H.       H.       H.       H     Q      H.       H.       H.
E|------------|-2------|-L------|-L------|------------|-1------|-L------|-L------|
B|-0-----3----|--------|--------|--------|-0-----3----|--------|--------|--------|
G|------------|--------|--------|--------|------------|--------|--------|--------|
D|------------|--------|--------|--------|------------|--------|--------|--------|
A|------------|--------|--------|--------|------------|--------|--------|--------|
E|------------|--------|--------|--------|------------|--------|--------|--------|

   H     Q      H.       H.       H     Q      H.       H.       H.       H.
E|------------|-5------|-L------|-L-----3----|-2------|-L------|-L------|-L------|
B|-0-----3----|--------|--------|------------|--------|--------|--------|--------|
G|------------|--------|--------|------------|--------|--------|--------|--------|
D|------------|--------|--------|------------|--------|--------|--------|--------|
A|------------|--------|--------|------------|--------|--------|--------|--------|
E|------------|--------|--------|------------|--------|--------|--------|--------|