Login or Register to remove this ad. | Advertise Here

Birth of a God (Final Fantasy VII) Guitar Tab

Submitted: May 02, 2010 by Brainsick Fungus

5
Average: 5 (3 votes)
Download | Listen
Game: Final Fantasy VII
Composer(s): Nobuo Uematsu
Style: Alternate picking, Transcription
Series: Final Fantasy

AutoScroll: Slow | Medium | Fast
The Birth of a god
By Nobuo Uematsu	
Final fantasy VII
Tabbed by Brainsick Fungus 
4/25/10



e--14---12---14---15---17---------------13--18---7--5--------------------|
B--12---10---12---13---15-----------13------------------8--7---8-5-8-7---|
G--11---9----11---12---14-------12---------------------------------------|
D---------------------------12-------------------------------------------|
A------------------------------------------------------------------------|
E------------------------------------------------------------------------|

e-7--5---------7-10---7--5---------------5---7--5---------7--10----------|
B--------8--7----------------8--7--8-5-8------------8--7-----------------|
G------------------------------------------------------------------------|
D------------------------------------------------------------------------|
A------------------------------------------------------------------------|
E------------------------------------------------------------------------|

e-12-15-14-10--12-----12-10-----10-8----8-7---7--------------------------|
B-----------------13--------12-------10-----8---10-7-8-------------------|
G------------------------------------------------------9-8-9-11----------|
D---------------------------------------------------------------10-9-10--|
A------------------------------------------------------------------------|
E------------------------------------------------------------------------|

e-12-15-14-10--12-----12-10-----10-8----8-7---10-7----------------7------|
B-----------------13--------12-------10-----8------8-7-5-8-7-10-8---10---|
G------------------------------------------------------------------------|
D------------------------------------------------------------------------|
A------------------------------------------------------------------------|
E------------------------------------------------------------------------|

e-8-12-10-14-12-15-14-17-15--12-15-14-17-15-19-17-20-19--15-18-17-20-18-22-20-23-22-|
B-----------------------------------------------------------------------------------|
G-----------------------------------------------------------------------------------|
D-----------------------------------------------------------------------------------|
A-----------------------------------------------------------------------------------|
E-----------------------------------------------------------------------------------|

e-10-9-10---------10-9-10--------------------8-7-8-------8-7-8----------------------|
B---------10-9-10---------10-9-10------------------8-7-8-------8-7-8----------------|
G---------------------------------10-9-10-7--------------------------8-7-8-5--------|
D-----------------------------------------------------------------------------------|
A-----------------------------------------------------------------------------------|
E-----------------------------------------------------------------------------------|

e-13--12--14---13--13--12---13--12--14--13----13--12--14--13--13--14p13p12-|
B--------------------------------------------------------------------------|
G--------------------------------------------------------------------------|
D--------------------------------------------------------------------------|
A--------------------------------------------------------------------------|
E--------------------------------------------------------------------------|

e-13--12--14--13------------------10--9--12--13--9--10--13--17--12--13--17-|
B------------------10--9--11--10-------------------------------------------|
G--------------------------------------------------------------------------|
D--------------------------------------------------------------------------|
A--------------------------------------------------------------------------|
E--------------------------------------------------------------------------|

e-8--5--0--------0-5-7-8-6--3-------------3-5-6--5--|
B------------0-1---------------3--------3-----------|
G----------2----------------------0-2-3-------------|
D---------------------------------------------------|
A---------------------------------------------------|
E---------------------------------------------------|