Login or Register to remove this ad. | Advertise Here

Battle Theme (Final Fantasy VII) Guitar Tab

Submitted: Jul 07, 2010 by Bhael (Last updated: Mar 26, 2014)

5
Average: 5 (3 votes)
Download | Listen
Game: Final Fantasy VII
Composer(s): Nobuo Uematsu
Style: Arrangement, Fingerstyle
Series: Final Fantasy

AutoScroll: Slow | Medium | Fast
                                 Battle Theme 
                              Final Fantasy VII                                  
                                Nobue Uematsu

Arranged by Harry Murrell

Tempo: 90 bpm                                                                
Capo 1



     ^ ^ ^ ^ ^ ^ ^ ^ ^ ^ ^ ^ ^ ^ ^ ^    ^ ^ ^ ^ ^ ^ ^ ^ ^ ^  ^  ^  ^  
     S S S S S S S S S S S S S S S S    S S S S S S S S S E  E  E  S  
E||----------------------------------|-----------------------------0-|
B||----5-5---5-5-------3-0-3-6-5-3-6-|----5-5---5-5-------3--3--3--0-|
G||--x-x-x-x-x-x-x-x-x-x-x-x-x-x-x-x-|--x-x-x-x-x-x-x-x-x-4--3--2--x-|
D||--2-----2-----2-----2-----0-------|--2-----2-----2-----4--4--4--2-|
A||----------------------------------|--------------------5--5--5----|
E||----------------------------------|-------------------------------|


  ^ ^ ^ ^ ^ ^ ^ ^                                         ^ ^ ^   ^  
  S S S S S S S S S S S S S S S S    S S E  S S  S  E  E  S S S S S  
----------------------------------|---------0----------1------------|
--5-5---5-5---------5---5---5---5-|----5------3p-0h-3---------------|
--x-x-x-x-x-x-x-x-----------------|---------------------------------|
------2-----2---------------------|-----------------------2-----4---|
------------------5---2---0-------|-----------------------2---------|
------------------------------3---|--2---0----------------0-0-0---0-|


  ^   ^ ^   ^ ^   ^   ^ ^ ^ ^ ^ ^    ^   ^ ^   ^ ^   ^    ^ ^ ^ ^ ^  
  S S S S S S S S S S S S S S S S    S S S S S S S S S E  S S S S S  
------------------------0---------|-----------------------0-----2---|
----------------0---3---1---------|----------------0---3--1-----3---|
----------2-------------0---------|----0-----2------------0-----4---|
----5-------------------2-----4---|-----------------------2-----4---|
------------------------3-3-3---3-|--3---3-3---3-3---2----0-0-0---0-|
--0---0-0---0-0---0---0-----------|---------------------------------|


  ^ ^ ^ ^ ^ ^ ^  ^  ^   ^ ^ ^    ^ ^ ^                  ^ ^ ^ ^  
  S S S S S S E  E  E.  S S S    S S E  S S S S S S S S S S S S  
----3-----5---7-----3---------|-------------------------0-2-3-5-|
----3-----5---7-----0-----5-5-|----5-5------------------0-0-0-0-|
----4-----5---7-----0---x-x-x-|--x-x-x------0-2-0---2-0-0-0-0-0-|
----5-----7------0------2-----|--2------2-4-------4-----2-2-2-2-|
--0---0-0---0-----------------|---------------------------------|
------------------------------|---------------------------------|


  ^ ^ ^ ^   ^  ^ ^  ^ ^ ^   ^    ^   ^ ^   ^ ^   ^   ^ ^ ^ ^ ^ ^  
  S S S E.  E  S E  S S S S S    S S S S S S S S S S S S S S S S  
--3-2-5-3---------------------|------------------------0---------|
--0-0-0-0---6--6-3------------|----------------0---3---1---------|
--0-0-0-0---0--0-0------------|----------2-------------0---------|
--2-2-2-2---3--3-0--2-----4---|----5-------------------2-----4---|
--------------------2---------|------------------------3-3-3---3-|
--------------------0-0-0---0-|--0---0-0---0-0---0---0-----------|


  ^   ^ ^   ^ ^   ^    ^ ^ ^ ^ ^    ^ ^ ^ ^ ^ ^ ^  ^  ^   ^ ^ ^  
  S S S S S S S S S E  S S S S S    S S S S S S E  E  E.  S S S  
-----------------------0-----2---|----3-----5---7-----3---------|
----------------0---3--1-----3---|----3-----5---7-----0-----5-5-|
----0-----2------------0-----4---|----4-----5---7-----0---x-x-x-|
-----------------------2-----4---|----5-----7------0------2-----|
--3---3-3---3-3---2----0-0-0---0-|--0---0-0---0-----------------|
---------------------------------|------------------------------|


  ^ ^ ^                  ^ ^ ^ ^    ^ ^ ^ ^   ^  ^ ^  ^ ^ ^ ^ ^  
  S S E  S S S S S S S S S S S S    S S S E.  E  S E  S S S S S  
-------------------------0-2-3-5-|--3-2-5-3---------------------|
----5-5------------------0-0-0-0-|--0-0-0-0---6--6-3----5-5---5-|
--x-x-x------0-2-0---2-0-0-0-0-0-|--0-0-0-0---0--0-0--x-x-x-x-x-|
--2------2-4-------4-----2-2-2-2-|--2-2-2-2---3--3-0--2-----2---|
---------------------------------|------------------------------|
---------------------------------|------------------------------|


  ^ ^ ^ ^ ^               ^ ^ ^ ^    ^ ^ ^     ^ ^ ^ ^ ^              
  S S S S S S S S S S S S S S S S    S S S S S S S S S S S S S S S S  
--------------------------0-2-3-5-|--3-2---0---0-2-3-2-3-5---7-5-7-5-|
--5---5-5-----------------0-0-0-0-|--0-0-0---3-x-x-x-x-x-------------|
--x-x-x-x-----0-2-0---2-0-0-0-0-0-|--0-0-0-----x-x-x-x-x-------------|
----2-----2-4-------4-----2-2-2-2-|--2-2-2-----2---1---0-------------|
----------x-----------------------|------------------------3---------|
----------0-----------------------|----------------------------------|


           ^        ^                                             
  S S S E  E  E  E  S S S S S    S S S S S S S S S S S S S S S S  
--3-0-2-3-----------3---------|------------------------5---------|
-----------1-----3--5---------|------5-----------------5-7-------|
-----------0--4-----5---4-5---|--4-5-----------------4-5---6-7-9-|
-----------2--------5---------|--------5---4-5---5-7-------------|
-----------3----------0-----0-|----------0-----0-----------------|
------------------------------|----------------------------------|


        ^               ^   ^       ^                ^          
  S S S S S S S S S S S E.  E     S E  S S S S S S S E  S E  S  
-------------------------------|---------------0-2-3----0-3--2-|
-------------------------------|---------0-1-3-----------------|
--7-5---7-----4-5-4-7---5---4--|--L-2--2-----------------------|
------9-x-5-7---------7-x---x--|----x----------------2---------|
--------x---------------0---0--|--L-0----------------2---------|
--------0----------------------|---------------------0---------|


                     ^                               ^       
  E  S E  S E  S S S E  S E     S E  S E  S E  S S S E  S S  
--5--3-7--5-8--7-3-0---------|----5----7--5-8--7------------|
------------------------5-8--|--7----8-----------8-5------8-|
---------------------5-------|-----------------------7--9---|
---------------------5-------|-----------------------7------|
---------------------7-------|-----------------------5------|
-----------------------------|------------------------------|


                         ^                               ^   
  S S E  S E  S E  S S S E  S    E  S E  S E  S E  S S S E   
------5----7--5-8--7--------0-|--3--2-5--3-7--5-8--7-3-0----|
--L-7----8-----------8--------|-----------------------------|
-----------------------7------|--------------------------5--|
-------------------------2----|--------------------------5--|
-------------------------2----|--------------------------7--|
-------------------------0----|-----------------------------|


                            ^                                 
  S E  S E  S E  S E  S S S S    S S E  S E  S E  S E  S S S  
---------5----7--5-8--7-------|-----------5----7--5-8--7-----|
--5-8--7----8-----------8-5---|------8--7----8-----------8---|
----------------------------7-|--L-9-----------------------7-|
----------------------------7-|--L---------------------------|
----------------------------5-|--L---------------------------|
------------------------------|------------------------------|


  ^                  
  W                  
--0----------------||
--0----------------||
--0----------------||
--2----------------||
--2----------------||
--0----------------||




Duration Legend
---------------
W - whole
H - half
Q - quarter
E - 8th
S - 16th
T - 32nd
X - 64th
. - note dotted
|-n-|  - n-tuplets


Tablature Legend
----------------
L - tied note
x - dead note
g - grace note
(n) - ghost note
> - accentuded note
NH - natural harmonic
AH - artificial harmonic
TH - tapped harmonic
SH - semi harmonic
PH - pitch harmonic
h - hammer on
p - pull off
b - bend
br - bendRelease
pb - preBend
pbr - preBendRelease
brb - bendReleaseBend
\n/ - tremolo bar dip
\n - tremolo bar dive
-/n - tremolo bar Release up
/n\ - tremolo bar inverted dip
/n - tremolo bar return
-\n - tremolo bar Release down
S - shift slide
s - legato slide
/ -  slide into from below or out of upwards
\ -  slide into from above or out of downwards
~ - vibrato
W - wide vibrato
tr - trill
TP - tremolo picking
T - tapping
S - slap
P - pop
< - fade in
^ - brush up
v - brush down

2 comments on Battle Theme

Amazing

5

Nice freakin version of this song just that its to hard for me lol

Dafuq man I am horrible at

Dafuq man I am horrible at reading music this is a nightmare for someone like me.lol xD good job though.