Login or Register to remove this ad. | Advertise Here

Barret's Theme (Final Fantasy VII) Bass/Guitar Tab

Submitted: Jul 08, 2010 by khensel

5
Average: 5 (1 vote)
Download | Listen
Game: Final Fantasy VII
Composer(s): Nobuo Uematsu
Style: 2 or more instruments, Transcription
Series: Final Fantasy

AutoScroll: Slow | Medium | Fast
Final Fantasy 7 - Barret's Theme
Composed by Nobuo Uematsu
Tabbed by brningpyre

- Arranged for 2 Guitars (6-string) and Bass (4-string) from piano sheet music, with some changes/fixes.
- "~" represents holding the note (optional vibrato)
- "h" and "p" represent a hammer-ons and pull-offs (between notes)
- Loop is on { [A], [A], [B1], [C], [B2], [D] }
- The timing "1 + a " represents a triplet
- 150 bpm (75 bpm half-count)

[A]
G|-----------------|-----------------|-----------------|-3~~~~~~-5---5---
D|-7~~~~~~~~~~-7---|-7~~~~~~~~~~-7---|-7~~~~~~~~~~-7---|-5~~~~~~-7---7---
A|-8~~~~~~~~~~-8---|-8-~~~~~~~~~-8---|-8~~~~~~~~~~-8---|-6~~~~~~-8---8---
E|-----------------|-----------------|-----------------|-----------------
   1 + 2 + 3 + 4 +   1 + 2 + 3 + 4 +   1 + 2 + 3 + 4 +   1 + 2 + 3 + 4 +

e|-----------------|-----------------|-----------------|-----------------
B|-----------------|-----------------|-----------------|-----------------
G|-----------------|-----------------|-----------------|-----------------
D|-----7-6-7-------|-------------7-6-|-7-----6-7---6---|---6---6---------
A|-----------------|-------5-6-------|-----8---------8-|-6---5-----------
E|-----------------|-----8-----------|-----------------|---------8-------
   1 + 2 + 3 + 4 +   1 + 2 + 3 + 4 +   1 + 2 + 3 + 4 +   1 + 2 + 3 + 4 +

x 2


[B1]
G|-----------------|-----------------|-----------------|---------5~~~~~~-
D|-7~~~~~~~~~~-7---|-7~~~~~~~~~~-7---|-7~~~~~~~~~~-7---|-5~~~~~~-7~~~~~~-
A|-8~~~~~~~~~~-8---|-8-~~~~~~~~~-8---|-8~~~~~~~~~~-8---|-6~~~~~~-8~~~~~~-
E|-----------------|-----------------|-----------------|-8---------------
   1 + 2 + 3 + 4 +   1 + 2 + 3 + 4 +   1 + 2 + 3 + 4 +   1 + 2 + 3 + 4 +

e|-----------------|-----------------|-----------------|-----------------------
B|-----13--11--13--|-10--------------|-----------------|-----------------------
G|-----------------|-----10----------|-----12--10~~~~~~|~~~~-------------------
D|-----------------|---------13--10--|-13--------------|-----10-12-13----12-11-
A|-----------------|-----------------|-----------------|-----------------------
E|-----------------|-----------------|-----------------|-----------------------
   1 + 2 + 3 + 4 +   1 + 2 + 3 + 4 +   1 + 2 + 3 + 4 +   1 + 2  +  3  +  4  +


G|-----------------|-----------------|-----------------|---------5~~~~~~-
D|-7~~~~~~~~~~-7---|-7~~~~~~~~~~-7---|-7~~~~~~~~~~-7---|-5~~~~~~-7~~~~~~-
A|-8~~~~~~~~~~-8---|-8-~~~~~~~~~-8---|-8~~~~~~~~~~-8---|-6~~~~~~-8~~~~~~-
E|-----------------|-----------------|-----------------|-8---------------
   1 + 2 + 3 + 4 +   1 + 2 + 3 + 4 +   1 + 2 + 3 + 4 +   1 + 2 + 3 + 4 +

e|-----------------|-----------------|-----------------|-----------------
B|-----------------|-----------------|-----------------|-----------------
G|-----------------|-----------------|-----------------|----------------- (guitar 1)
D|-10~~~~~~~~~~~~~-|-----------------|-----------------|-----------------
A|-----------------|-----------------|-----------------|-----------------
E|-----------------|-----------------|-----------------|-----------------
   1 + 2 + 3 + 4 +   1 + 2 + 3 + 4 +   1 + 2 + 3 + 4 +   1 + 2 + 3 + 4 +

e|-----------------|-----------------|-----------------|-----------------
B|-----------------|-----------------|-----------------|-----------------
G|-----------------|-----------------|-----------------|----------------- (guitar 2)
D|---------7~~~~~~-|-----5-8-7-------|-5---------------|-----------------
A|-----8-----------|-------------8---|---8-6-5---------|-------5---------
E|-8---------------|-----------------|---------8~~~~~~~|~~~~-6---8~~~~~~-
   1 + 2 + 3 + 4 +   1 + 2 + 3 + 4 +   1 + 2 + 3 + 4 +   1 + 2 + 3 + 4 +


G|-----------------|-----------------|-----------------|---------5~~~~~~-
D|-7~~~~~~~~~~-7---|-7~~~~~~~~~~-7---|-7~~~~~~~~~~-7---|-5~~~~~~-7~~~~~~-
A|-8~~~~~~~~~~-8---|-8-~~~~~~~~~-8---|-8~~~~~~~~~~-8---|-6~~~~~~-8~~~~~~-
E|-----------------|-----------------|-----------------|-8---------------
   1 + 2 + 3 + 4 +   1 + 2 + 3 + 4 +   1 + 2 + 3 + 4 +   1 + 2 + 3 + 4 +

e|-----------------|-----------------|-----------------|-----------------------
B|-----13--11--13--|-10--------------|-----------------|-----------------------
G|-----------------|-----10----------|-----12--10~~~~~~|~~~~----------10-12-10-
D|-----------------|---------13--10--|-13--------------|-----10-12-13----------
A|-----------------|-----------------|-----------------|-----------------------
E|-----------------|-----------------|-----------------|-----------------------
   1 + 2 + 3 + 4 +   1 + 2 + 3 + 4 +   1 + 2 + 3 + 4 +   1 + 2  +  3  +  4  +


G|-----------------|-----------------|-----------------|---------5~~~~~~-
D|-7~~~~~~~~~~-7---|-7~~~~~~~~~~-7---|-7~~~~~~~~~~-7---|-5~~~~~~-7~~~~~~-
A|-8~~~~~~~~~~-8---|-8-~~~~~~~~~-8---|-8~~~~~~~~~~-8---|-6~~~~~~-8~~~~~~-
E|-----------------|-----------------|-----------------|-8---------------
   1 + 2 + 3 + 4 +   1 + 2 + 3 + 4 +   1 + 2 + 3 + 4 +   1 + 2 + 3 + 4 +

e|-----------------|-----------------|-----------------|-----------------
B|-10~~~~~~~~~-----|-----------------|-----------------|-----------------
G|-------------10~~|~~~~~~~~~~~~~~~~-|-----------------|----------------- (guitar 1)
D|-----------------|-----------------|-----------------|-----------------
A|-----------------|-----------------|-----------------|-----------------
E|-----------------|-----------------|-----------------|-----------------
   1 + 2 + 3 + 4 +   1 + 2 + 3 + 4 +   1 + 2 + 3 + 4 +   1 + 2 + 3 + 4 +

e|-----------------|-----------------|-----------------|-----------------
B|-----------------|-----------------|-----------------|-----------------
G|-----------------|-5---------------|-----------------|----------------- (guitar 2)
D|-----7---6---7---|-----6---7-------|-----5-----------|-----------------
A|-----------------|-------------8---|-6-------8-------|-5-------6-------
E|-----------------|-----------------|-------------8---|-----8-------8---
   1 + 2 + 3 + 4 +   1 + 2 + 3 + 4 +   1 + 2 + 3 + 4 +   1 + 2 + 3 + 4 +


[C]
G|-----------------|-----------------|-----------------|-----------------
D|-12~~~~~~~~~-12--|-12~~~~~~~~~-12--|-12~~~~~~~~~-12--|-10~~~~~-12~~~~~-
A|-13~~~~~~~~~-13--|-13~~~~~~~~~-13--|-13~~~~~~~~~-13--|-11~~~~~-13~~~~~-
E|-----------------|-----------------|-----------------|-----------------
   1 + 2 + 3 + 4 +   1 + 2 + 3 + 4 +   1 + 2 + 3 + 4 +   1 + 2 + 3 + 4 +

e|-----------------|-----------------|-----------------|-----------------
B|-----------------|-----------------|-----------------|-----------------
G|---------7-------|-----8~~~~~~-7~~~|~~~~-------------|-----------------
D|-8~~~~~~-----6---|-8---------------|-----6~~~~~~-8~~~|~~~~-8---6---5---
A|-----------------|-----------------|-----------------|-----------------
E|-----------------|-----------------|-----------------|-----------------
   1 + 2 + 3 + 4 +   1 + 2 + 3 + 4 +   1 + 2 + 3 + 4 +   1 + 2 + 3 + 4 +


G|-----------------|-----------------|-----------------|-----------------
D|-12~~~~~~~~~-12--|-12~~~~~~~~~-12--|-12~~~~~~~~~-12--|-10~~~~~-8~~~~~~-
A|-13~~~~~~~~~-13--|-13~~~~~~~~~-13--|-13~~~~~~~~~-13--|-11~~~~~-10~~~~~-
E|-----------------|-----------------|-----------------|-----------------
   1 + 2 + 3 + 4 +   1 + 2 + 3 + 4 +   1 + 2 + 3 + 4 +   1 + 2 + 3 + 4 +

e|-----------------|-----------------|-----------------|-----------------
B|-----------------|-----------------|-----------------|-----------------
G|-----------------|-----------------|-----------------|-----------------
D|-6-8-6-5---------|-----------------|-----------------|-----------------
A|---------8~~~~~~~|~~~~~~~~-8-6-5-6-|-8~~~~~~~~~~~~~~~|~~~~~~~~~~~~~~~~-
E|-----------------|-----------------|-----------------|-----------------
   1 + 2 + 3 + 4 +   1 + 2 + 3 + 4 +   1 + 2 + 3 + 4 +   1 + 2 + 3 + 4 +


[B2]
G|-----------------|-----------------|-----------------|---------5~~~~~~-
D|-7~~~~~~~~~~-7---|-7~~~~~~~~~~-7---|-7~~~~~~~~~~-7---|-5~~~~~~-7~~~~~~-
A|-8~~~~~~~~~~-8---|-8-~~~~~~~~~-8---|-8~~~~~~~~~~-8---|-6~~~~~~-8~~~~~~-
E|-----------------|-----------------|-----------------|-8---------------
   1 + 2 + 3 + 4 +   1 + 2 + 3 + 4 +   1 + 2 + 3 + 4 +   1 + 2 + 3 + 4 +

e|-----------------|-----------------|-----------------|-----------------------
B|-----13--11--13--|-10--------------|-----------------|-----------------------
G|-----------------|-----10----------|-----12--10~~~~~~|~~~~----------10-12-10-
D|-----------------|---------13--10--|-13--------------|-----10-12-13----------
A|-----------------|-----------------|-----------------|-----------------------
E|-----------------|-----------------|-----------------|-----------------------
   1 + 2 + 3 + 4 +   1 + 2 + 3 + 4 +   1 + 2 + 3 + 4 +   1 + 2  +  3  +  4  +


G|-----------------|-----------------|-----------------|---------5~~~~~~-
D|-7~~~~~~~~~~-7---|-7~~~~~~~~~~-7---|-7~~~~~~~~~~-7---|-5~~~~~~-7~~~~~~-
A|-8~~~~~~~~~~-8---|-8-~~~~~~~~~-8---|-8~~~~~~~~~~-8---|-6~~~~~~-8~~~~~~-
E|-----------------|-----------------|-----------------|-8---------------
   1 + 2 + 3 + 4 +   1 + 2 + 3 + 4 +   1 + 2 + 3 + 4 +   1 + 2 + 3 + 4 +

e|-----------------|-----------------|-----------------|-----------------
B|-10~~~~~~~~~-----|-----------------|-----------------|-----------------
G|-------------10~~|~~~~~~~~~~~~~~~~-|-----------------|----------------- (guitar 1)
D|-----------------|-----------------|-----------------|-----------------
A|-----------------|-----------------|-----------------|-----------------
E|-----------------|-----------------|-----------------|-----------------
   1 + 2 + 3 + 4 +   1 + 2 + 3 + 4 +   1 + 2 + 3 + 4 +   1 + 2 + 3 + 4 +

e|-----------------|-----------------|-----------------|-----------------
B|-----------------|-----------------|-----------------|-----------------
G|-----------------|-----------------|-----------------|----------------- (guitar 2)
D|---------7~~~~~~-|-----5-8-7-------|-5---------------|-----------------
A|-----8-----------|-------------8---|---8-6-5---------|-------5---------
E|-8---------------|-----------------|---------8~~~~~~~|~~~~-6---8~~~~~~-
   1 + 2 + 3 + 4 +   1 + 2 + 3 + 4 +   1 + 2 + 3 + 4 +   1 + 2 + 3 + 4 +


[D]
G|-----------------|-----------------|-----------------|-----------------
D|-10~~~~~~~~~-10--|-10~~~~~~~~~-10--|-10~~~~~~~~~-10--|-8~~~~~~-10~~~~~-
A|-11~~~~~~~~~-11--|-11~~~~~~~~~-11--|-11~~~~~~~~~-11--|-9~~~~~~-11~~~~~-
E|-----------------|-----------------|-----------------|-----------------
   1 + 2 + 3 + 4 +   1 + 2 + 3 + 4 +   1 + 2 + 3 + 4 +   1 + 2 + 3 + 4 +

e|-----------------|-----------------|-------------------|-----------------
B|-----------------|-----------------|-------------------|-----------------
G|-----------------|-----------------|-------------------|-----------------
D|-------6-8---6---|-5-----6-5-------|-------------------|-----------------
A|-----6-----------|-----8-------6---|-5h6p5---5-6~~~~~~~|~~~~~~~~~~~~~~~~-
E|-----------------|-----------------|-------8-----------|-----------------
   1 + 2 + 3 + 4 +   1 + 2 + 3 + 4 +   1 + a 2 + 3 + 4 +   1 + 2 + 3 + 4 +


G|-7~~~~~~~~~~-7---|-7~~~~~~~~~~-7---|-7~~~~~~~~~~-7---|-5~~~~~~-7~~~~~~-
D|-8~~~~~~~~~~-8---|-8~~~~~~~~~~-8---|-8~~~~~~~~~~-8---|-7~~~~~~-8~~~~~~-
A|-10~~~~~~~~~-10--|-10~~~~~~~~~-10--|-10~~~~~~~~~-10--|-8~~~~~~-10~~~~~-
E|-----------------|-----------------|-----------------|-----------------
   1 + 2 + 3 + 4 +   1 + 2 + 3 + 4 +   1 + 2 + 3 + 4 +   1 + 2 + 3 + 4 +

e|-----------------|-----------------|-----------------|-----------------
B|-----------------|-----------------|-----------------|-----------------
G|-----------------|-----------------|-----------------|----------------- (guitar 1)
D|---------5~~~~~~-|-----------------|---------5~~~~~~~|~~~~~~~~~~~~~~~~-
A|-5---------------|-----------------|-5---------------|-----------------
E|-----8-----------|-----------------|-----8-----------|-----------------
   1 + 2 + 3 + 4 +   1 + 2 + 3 + 4 +   1 + 2 + 3 + 4 +   1 + 2 + 3 + 4 +

e|-----------------|-----------------|-----------------|-----------------
B|-----------------|---------8~~~~~~~|~~~~~~~~~~~~~~~~~|~~~~~~~~~~~~~~~~-
G|-----------------|-7---5-----------|-----------------|----------------- (guitar 2)
D|-----------------|-----------------|-----------------|-----------------
A|-----------------|-----------------|-----------------|-----------------
E|-----------------|-----------------|-----------------|-----------------
   1 + 2 + 3 + 4 +   1 + 2 + 3 + 4 +   1 + 2 + 3 + 4 +   1 + 2 + 3 + 4 +


G|-6~~~~~~~~~~-6---|-6~~~~~~~~~~-6---|-6~~~~~~~~~~-6---|-8~~~~~~-6~~~~~~-
D|-6~~~~~~~~~~-6---|-6~~~~~~~~~~-6---|-8~~~~~~~~~~-8---|-8~~~~~~-8~~~~~~-
A|-4~~~~~~~~~~-4---|-4-~~~~~~~~~-4---|-----------------|-----------------
E|-----------------|-----------------|-----------------|-----------------
   1 + 2 + 3 + 4 +   1 + 2 + 3 + 4 +   1 + 2 + 3 + 4 +   1 + 2 + 3 + 4 +

e|-----------------|-------------------|-----------------|-------------------
B|-----------------|-------------------|-----------------|-------------------
G|-----------------|-------------------|-----------------|-------------------
D|-----------------|-5h6p5---5-6~~~~~~-|-----------------|-5h6p5---5-6~~~~~~~ (hold over  )
A|-----4-6-8---6-8-|-------8-----------|-----4-6-8---6-8-|-------8----------- (to next bar)
E|-----------------|-------------------|-----------------|-------------------
   1 + 2 + 3 + 4 +   1 + a 2 + 3 + 4 +   1 + 2 + 3 + 4 +   1 + a 2 + 3 + 4 +


G|-6~~~~~~-6~~~~~~-|-6~~~~~~-6~~~~~~-|-9~~~~~~~~~~~~~~-|-----------------
D|-8~~~~~~-8~~~~~~-|-8~~~~~~-8~~~~~~-|-10~~~~~~~~~~~~~-|-----------------
A|-----------------|-----------------|-12~~~~~~~~~~~~~-|-0~~~~~~~~~~~~~~-
E|-----------------|-----------------|-----------------|-----------------
   1 + 2 + 3 + 4 +   1 + 2 + 3 + 4 +   1 + 2 + 3 + 4 +   1 + 2 + 3 + 4 +

e|-----------------|-----------------|-----------------|-----------------
B|-----------------|-----------------|-----------------|-----------------
G|-----------------|-----------------|-5~~~~~~~~~~~~~~-|----------------- (guitar 1)
D|~~~~~~~~~~~~~~~~~|~~~~~~~~-6---8---|-----------------|-----------------
A|-----------------|-----------------|-----------------|-----------------
E|-----------------|-----------------|-----------------|-----------------
   1 + 2 + 3 + 4 +   1 + 2 + 3 + 4 +   1 + 2 + 3 + 4 +   1 + 2 + 3 + 4 +

e|-----------------|-----------------|-----------------|-----------------
B|-----------------|-----------------|-----------------|-----------------
G|-----------------|-----------------|-----------------|----------------- (guitar 2)
D|-----------------|-----------------|-----------------|-9~~~~~~~~~~~~~~-
A|-----------------|-----------------|-----------------|-10~~~~~~~~~~~~~-
E|-----------------|-----------------|-----------------|-10~~~~~~~~~~~~~-
   1 + 2 + 3 + 4 +   1 + 2 + 3 + 4 +   1 + 2 + 3 + 4 +   1 + 2 + 3 + 4 +


G|-----------------|-----------------|-----------------|-----------------
D|-----------------|-----------------|-----------------|-----------------
A|-0~~~~~~~~~~~~~~~|~~~~~~~~~~~~~~~~~|~~~~~~~~~~~~~~~~~|~~~~~~~~-0---0---
E|-----------------|-----------------|-----------------|-----------------
   1 + 2 + 3 + 4 +   1 + 2 + 3 + 4 +   1 + 2 + 3 + 4 +   1 + 2 + 3 + 4 +

e|-----------------|-----------------|-----------------|-----------------
B|-----------------|-----------------|-----------------|-----------------
G|-----------------|-----------------|-----------------|-----------------
D|-7~~~~~~~~~~~~~~-|-6~~~~~~~~~~~~~~~|~~~~~~~~~~~~~~~~~|~~~~~~~~---------
A|-5~~~~~~~~~~~~~~-|-6~~~~~~~~~~~~~~~|~~~~~~~~~~~~~~~~~|~~~~~~~~---------
E|-7~~~~~~~~~~~~~~-|-7~~~~~~~~~~~~~~~|~~~~~~~~~~~~~~~~~|~~~~~~~~---------
   1 + 2 + 3 + 4 +   1 + 2 + 3 + 4 +   1 + 2 + 3 + 4 +   1 + 2 + 3 + 4 +