Login or Register to remove this ad. | Advertise Here

Ahead On Our Way (Final Fantasy VII) Guitar Tab

Submitted: Nov 13, 2009 by demigorgon (Last updated: Dec 04, 2009)

5
Average: 5 (4 votes)
Download | Listen
Game: Final Fantasy VII
Composer(s): Nobuo Uematsu
Style: Arrangement, Fingerstyle
Series: Final Fantasy

AutoScroll: Slow | Medium | Fast
I worked very hard on this tab, only to find out there is 2 very similar ones on this website xD!
any comments are appreciated as this is one of my very first tabs :D

Music composed by:Nobuo Uematsu

Tuning: Dadgbe



|5---3---2---3---5----------------|2---0---0-------0----------------|
|--------0---------------0---3----|--------0---------------0--------|
|----0-------0-------0-------0----|----0-------0-------0-------0----|
|---------------------------------|---------------------------------|
|---------------------------------|---------------------------------|
|5---------------5----------------|2--------------------------------|




|0---7---5---0----------------7-9-|10------7-------7----------------|
|------------8---10-----------7---|----12---------------------------|
|--------5----------------7-------|--------7---------------7--------|
|----7----------------7-----------|----9-------9-------9-------9----|
|0--------------------------------|---------------------------------|
|-----------------0---------------|9--------------------------------|


 ^

|7---8---7---------------------5--|7-----------3---2-----------0----|
|8-----------10---8---------------|----0---1---3-------5---5--------|
|9-------8--------8--------8------|----0-------------------4-------*|
|10--------------------8-------5--|--------------------------------*|
|---------------------------------|---------------------------------|
|-----------------10--------------|5---------------2----------------|



|----0---2---3---5----------------|--------5---7---8----------------|
|--------1-------5----------------|----8-----------------------7----|
|----2-------2-----------5--------|------------5-----------7--------|
|--------------------7-------7----|--------7-----------7------------|
|0---------------0----------------|0---7-----------5----------------|
|---------------------------------|---------------------------------|




	|----7-----------5-----------2----|2---3---3-------3----------------|----------------3----------------|
	|-------10---8-----------3--------|--------0---------------0--------|--------0---------------0--------|
       *|9-------------------2------------|----0-------0-------0-------0----|----0-------0-------0-------0----|
       *|--------7--10---0----------------|---------------------------------|---------------------------------|
	|0---7----------------------------|---------------------------------|---------------------------------|
	|---------------------------------|5--------------------------------|5--------------------------------|



|----------------3----------------|----------------0----------------|
|--------0---0---3-------0--------|--------0----------------0-------|
|----0---2---0-------0-------0----|----0-------0-------0--------0---|
|4--------------------------------|4-------2------------------------|
|---------------------------------|---------------------------------|
|5--------------------------------|2--------------------------------|


|---------------------------------|------------3---------------2----|
|----------------5----------------|--------0---------------3--------|
|--------4---5-------5------------|----2---------------2------------|
|6---7-------7----------------7---|5---------------4----------------|
|0-------------------0---7--------|5---------------5----------------|
|---------------------------------|---------------------------------|




|----------------2-----------2----|5-------5---7---3----------------|
|--------2---3-------3---5--------|----8---0-------5-------0--------|
|2---4-------4-------4-------4----|----0-------0-------0-------0----|
|------------------------0--------|---------------------------------|
|2--------------------------------|---------------------------------|
|---------------------------------|5--------------------------------|


|---------------------------------|---------------------------------|
|5---------------5----------------|--------3-------1-------3---1----|
|----4---5---------------5--------|----1---2---4---0---2---2---0----|
|----7-------6---7---7-------7----|0--------------------------------|
|0--------------------------------|---------------------------------|
|---------------------------------|---------------------------------|
|


|----------------3----------------|----------------0----------------|
|--------0------------------------|--------0---------------0--------|
|4-------------------0---4--------|----0---------------0-------0----|
|----5-------5---------------5----|4---2---4---5---2----------------|
|---------------------------------|---------------------------------|
|5--------------------------------|2--------------------------------|



|---------------------------------|----------------2-----------2----|
|5---------------5----------------|--------3---------------3--------|
|--------5-----------5------------|----2-------2---2---2------------|
|----7-------7-----------7---5----|4-----------5--------------------|
|0--------------------------------|5---------------------------0----|
|---------------------------------|---------------------------------|





|5---3---2---3---5----------------|2---0---0-------0----------------|
|--------0---------------0---3----|--------0---------------0--------|
|----0-------0-------0-------0----|----0-------0-------0-------0----|
|---------------------------------|---------------------------------|
|---------------------------------|---------------------------------|
|5---------------5----------------|2--------------------------------|




|0---7---5---0----------------7-9-|10------7-------7----------------|
|------------8---10-----------7---|----12---------------------------|
|--------5----------------7-------|--------7---------------7--------|
|----7----------------7-----------|----9-------9-------9-------9----|
|0--------------------------------|---------------------------------|
|-----------------0---------------|9--------------------------------|


 ^

|7---8---7---------------------5--|7-----------3---2-----------0----|
|8-----------10---8---------------|----0---1---3-------5---5--------|
|9-------8--------8--------8------|----0-------------------4--------|
|10--------------------8-------5--|---------------------------------|
|---------------------------------|---------------------------------|
|-----------------10--------------|5---------------2----------------|



|----0---2---3---5----------------|--------5---7---8----------------|3--------------------------------|
|--------1-------5----------------|----8-----------------------7----|0--------------------------------|
|----2-------2-----------5--------|------------5-----------7--------|0--------------------------------|
|--------------------7-------7----|--------7-----------7------------|5--------------------------------|
|0---------------0----------------|0---7-----------5----------------|---------------------------------|
|---------------------------------|---------------------------------|5--------------------------------|

5 comments on Ahead On Our Way

Great Tab!

But you forgot to say it's in drop D. :3

Yeah

yeah i forgot to put additional info on the notepad file, i wrote it in on the submission forum but it didn't make it onto the page.

Oh! Sorry. I'll put that in

Oh! Sorry. I'll put that in XD

You should be able to edit it yourself too.

Ah i didn't know i could

Ah i didn't know i could edit. lol thank you for the update :)

If someone

could make a guitar pro file of this tab i would be most appreciative, i am not profficent with the program or i would make the attempt but... someone who can please