Login or Register to remove this ad. | Advertise Here

Ahead On Our Way (Final Fantasy VII) Guitar Tab

Submitted: Aug 02, 2009 by TheDoomOfAllFires (Last updated: Feb 04, 2010)

5
Average: 5 (4 votes)
Download | Listen
Game: Final Fantasy VII
Composer(s): Nobuo Uematsu
Style: Arrangement, Fingerstyle
Series: Final Fantasy

AutoScroll: Slow | Medium | Fast
Final Fantasy VII - Ahead On Our Way
Arranged by TheDoomOfAllFires; 08/02/2009

BPM=65


Hope you like it ! ^^



     E  E  E  E  E  E  E  E     E  E  E  E  E  E  E  E   
E||--5--3--2--3--5-----------|--2--0--0-----------------|
B||--------0--------------3--|--0-----------------------|
G||-----0-----0-----0--4--4--|--------0-----------0-----|
D||--------------------5-----|-----2-----2-----2-----2--|
A||--------------------------|--------------------------|
E||--3-----------3-----3-----|--0-----------0-----------|


  E  E  E  E  E  E  E  S  S     E  E  E  E  E  E  E  E   
--0--7--5--3--5--------7h-9-|--10--7--7-----------------|
----------------------------|---------------7-----------|
--------5--2--------7-------|---------7-----------7-----|
-----7--------0--7----------|------9-----9-----9-----9--|
--0-------------------------|---------------------------|
----------------------------|---7-----------------------|


                                                ^            
  E  E   E   E  E   E   E   E     E   E   E  E  E  E  E  E   
--7--8---7---------------------|--7-------------------------|
------------10--8----------10--|----------------7--5--------|
-----0-------------------------|-------------7--0--------0--|
--------10-------------10------|------9--10-----------2-----|
-------------------10----------|-----10--12--------2--------|
--8-------------8--------------|--7-------------0-----------|


  E  E  E  E  E  E  E  E     E  E  E  E  E  E  E  E   
-----0--2--3--5-----------|--------5--7--8-----------|
--------------------------|-----8-----------------7--|
--------2-----------2-----|--------------------7-----|
-----2-----2-----2-----2--|--------7-----0--7--------|
--0-----------0-----------|--0--7-----7--------------|
--------------------------|--------------------------|


                             ^                        
  E  E  E  E  E  E  E  E     E  E  E  E  E  E  E  E   
--5--3--2--3--5-----------|--2--0--0-----------------|
--------0--------------3--|--0-----------------------|
-----0-----0-----0--4--4--|--------0-----------0-----|
--------------------5-----|-----2-----2-----2-----2--|
--------------------------|--------------------------|
--3-----------3-----3-----|--0-----------0-----------|


  E  E  E  E  E  E  E  S  S     E  E  E  E  E  E  E  E   
--0--7--5--3--5--------7h-9-|--10--7--7-----------------|
----------------------------|---------------7-----------|
--------5--2--------7-------|---------7-----------7-----|
-----7--------0--7----------|------9-----9-----9-----9--|
--0-------------------------|---------------------------|
----------------------------|---7-----------------------|


                                                ^            
  E  E   E   E  E   E   E   E     E   E   E  E  E  E  E  E   
--7--8---7---------------------|--7-------------------------|
------------10--8----------10--|----------------7--5--------|
-----0-------------------------|-------------7--0--------0--|
--------10-------------10------|------9--10-----------2-----|
-------------------10----------|-----10--12--------2--------|
--8-------------8--------------|--7-------------0-----------|


                                                        ^                  
  E  E  E  E  E  E  E  E     E  E  E  E  E  E  E  E     W                  
-----0--2--3--5-----------|--------5--7--8-----------|--3----------------||
--------------------------|-----8-----------------7--|--0----------------||
--------2-----------2-----|--------------------7-----|--0----------------||
-----2-----2-----2-----2--|--------7-----0--7--------|--0----------------||
--0-----------0-----------|--0--7-----7--------------|-------------------||
--------------------------|--------------------------|--3----------------||




Duration Legend
---------------
W - whole
H - half
Q - quarter
E - 8th
S - 16th
T - 32nd
X - 64th
. - note dotted
|-n-|  - n-tuplets


Tablature Legend
----------------
L - tied note
x - dead note
g - grace note
(n) - ghost note
> - accentuded note
NH - natural harmonic
AH - artificial harmonic
TH - tapped harmonic
SH - semi harmonic
PH - pitch harmonic
h - hammer on
p - pull off
b - bend
br - bendRelease
pb - preBend
pbr - preBendRelease
brb - bendReleaseBend
\n/ - tremolo bar dip
\n - tremolo bar dive
-/n - tremolo bar Release up
/n\ - tremolo bar inverted dip
/n - tremolo bar return
-\n - tremolo bar Release down
S - shift slide
s - legato slide
/ -  slide into from below or out of upwards
\ -  slide into from above or out of downwards
~ - vibrato
W - wide vibrato
tr - trill
TP - tremolo picking
T - tapping
S - slap
P - pop
< - fade in
^ - brush up
v - brush down

3 comments on Ahead On Our Way

Pretty song.

5

Pretty song.

OOO wow! I don't know how I

5

OOO wow! I don't know how I didn't see this one till now. My main page must not have updated while this was on it D:

Anyways, great job on this doom! I'm actually surprised there was no solo version of this before on gametabs... your arrangement fills that void quite nicely :)

Very good. It's really

Very good. It's really pretty. :)