Login or Register to remove this ad. | Advertise Here

Aerith's Theme (Duet) (Final Fantasy VII) Guitar Tab

Submitted: May 19, 2010 by TheDoomOfAllFires

5
Average: 5 (2 votes)
Download | Listen
Game: Final Fantasy VII
Composer(s): Nobuo Uematsu
Style: 2 or more instruments, Arrangement, Fingerstyle
Series: Final Fantasy

AutoScroll: Slow | Medium | Fast
Title: Aerith's Theme (Duet)
Artist: Nobuo Uematsu
Album: FF VII
Music: Nobuo Uematsu
Copyright: Nobuo Uematsu / Square-Enix
Tabber: TheDoomOfAllFires
Tempo = 72
Steel Guitar

Hope you like it ! ^^


Guitar 1 :

                                                             
E |----------------------------|----------------------------|
B |----------------------------|--------1-----0-------------|
G |----------------------------|--------------------2-------|
D |--------4-----2-----0-------|-----2-----2-----2-----2----|
A |-----0-----0-----0-----0----|--0-------------------------|
D |--0-------------------------|----------------------------|

                                                          
----------------------------|----------------------------|
----------------------------|--------1-----0-------------|
----------------------------|--------------------2-------|
--------4-----2-----0-------|-----2-----2-----2-----2----|
-----0-----0-----0-----0----|--0-------------------------|
--0-------------------------|----------------------------|

                                                          
----------------------------|----------------------------|
----------------------------|--------1-----0-------------|
----------------------------|--------------------2-------|
--------4-----2-----0-------|-----2-----2-----2-----2----|
-----0-----0-----0-----0----|--0-------------------------|
--0-------------------------|----------------------------|

                                                          
----------------------------|----------------------------|
--------3-----1-------------|----------------------------|
--------------------3-------|--------3-----2-----0-------|
-----3-----3-----3-----3----|-----0-----0-----0-----0----|
--1-------------------------|----------------------------|
----------------------------|--5-------------------------|

                               ^                                     
----------------------------|----------|----------------------------|
----------------------------|--3-------|--------3-----2-----0-------|
--------------2--------2----|----------|----------------------------|
--------0--4-----0--4-------|--4-------|-----4-----4-----4-----4----|
-----0----------------------|--0-------|--2-------------------------|
--0-------------------------|--0--0----|----------------------------|

                                                          
----------------------------|----------------------------|
--------2-----0-------------|----------------------------|
--------------------2-------|--------4-----2-----0-------|
-----2-----2-----2-----2----|-----0-----0-----0-----0----|
--0-------------------------|----------------------------|
----------------------------|--5-------------------------|

                                                          
----------------------------|--------------2-------------|
-----------2h-3--------3----|-----------2-----------2----|
--------2-----------2-------|--------2-----------2-------|
--0h-4-----------4----------|-----4-----------4----------|
----------------------------|--4-------------------------|
----------------------------|----------------------------|

                                                                  
--0-----------2--------2----|--------------3--------3----|-------|
-----------2--------2-------|--------0h-3--------3-------|-------|
--------2--------2----------|-----0-----------0----------|-------|
-----4----------------------|--0-------------------------|-------|
----------------------------|----------------------------|-------|
----------------------------|----------------------------|--5----|

                                                          
--------------2-------------|--0-----------2--------2----|
-----------2-----------2----|-----------2--------2-------|
--------2-----------2-------|--------2--------2----------|
-----4-----------4----------|-----4----------------------|
--4-------------------------|----------------------------|
----------------------------|----------------------------|

                               ^                                  
----------------------------|-------|----------------------------|
--------------2--------2----|--3----|----------------------------|
--------0h-4-----0h-4-------|--0----|----------------------------|
-----0----------------------|--0----|--------4-----2-----0-------|
----------------------------|-------|-----0-----0-----0-----0----|
--5-------------------------|--5----|--0-------------------------|

                                                          
----------------------------|----------------------------|
----------------------------|----------------------------|
--------4-----2-----0-------|----------------------------|
-----0-----0-----0-----0----|--------7-----6-----4-------|
----------------------------|-----4-----4-----4-----4----|
--5-------------------------|--4-------------------------|

                                                          
----------------------------|----------------------------|
----------------------------|--------2-----0-------------|
--------4-----2-----0-------|--------------------2-------|
-----0-----0-----0-----0----|-----2-----2-----2-----2----|
----------------------------|--0-------------------------|
--5-------------------------|----------------------------|

                                                                    ^
----------------------------|----------------------------|-------|-------|
--------2-----0-------------|----------------------------|-------|-------|
--------------------2-------|--------4-----2-----0-------|-------|-------|
-----2-----2-----2-----2----|-----0-----0-----0-----0----|-------|--0----|
--0-------------------------|----------------------------|-------|--0----|
----------------------------|--5-------------------------|--5----|--0----|


-------|----------------------------|----------------------------|
-------|--------2-------------------|----------------------------|
-------|----------------------------|--------4-------------------|
-------|-----2-----2----------------|-----0-----0----------------|
-------|--0-----------0-------------|----------------------------|
--0----|----------------------------|--5-----------5-------------|


--------------------------------------------------------------------------------
--------------------------------------------------------------------------------
--------------------------------------0-----------------------------------------
--------------------------2-----------------------------------------------------
--------------2-----------------------------------------------------------------
--2-----------------------------------------------4s-5--------------------------


-----------------------|--2----|----||
-----------------------|--3----|----||
-----------------------|-------|----||
-----------------------|--0----|----||
-----------------------|--0----|----||
-----------------------|--0----|----||




Guitar 2 :


E |--------10------------------|--8-------------------------|
B |-----10---------------------|-----10---------------------|
G |--11------------------------|--------9-------------------|
D |----------------------------|----------------------------|
A |----------------------------|----------------------------|
E |----------------------------|----------------------------|


--------10-9--12-10----9----|----------|--------10------------------|
-----10-------------12------|--10------|-----10---------------------|
--11------------------------|-----9----|--11------------------------|
----------------------------|----------|----------------------------|
----------------------------|----------|----------------------------|
----------------------------|----------|----------------------------|


--8-------------------------------------------------|
--------10------------------------------------------|
--------------9L----------------------9-----7h-9----|
----------------------------------------------------|
----------------------------------------------------|
----------------------------------------------------|


----------------------------|-------|-------|-----------------------0----|
----------------------------|-------|-------|--------------------3-------|
--7-----------10-9--7--9----|--7----|--7----|----------------------------|
----------------------------|-------|-------|----------------------------|
----------------------------|-------|-------|----------------------------|
----------------------------|-------|-------|----------------------------|


--2-----------------2--3----|--5-----------------7--9----|--10-7----------|
----------------------------|----------------------------|-----------8----|
----------------------------|----------------------------|----------------|
----------------------------|----------------------------|----------------|
----------------------------|----------------------------|----------------|
----------------------------|----------------------------|----------------|


----------------------------------------------------|-----9----|
--10h12-10L---------------------10----10----7-------|-----10---|
----------------------------------------------------|--6-------|
----------------------------------------------------|----------|
----------------------------------------------------|----------|
----------------------------------------------------|----------|


--7-----------5-----7--5----|-----7----|--5-----------3-----5--2----|-----9----|
--7-----------7-------------|--3--8----|--7-----------3-------------|--2--10---|
----------------------------|----------|----------------------------|----------|
----------------------------|----------|----------------------------|----------|
----------------------------|----------|----------------------------|----------|
----------------------------|----------|----------------------------|----------|


--7-----------5-----7--9----|--10---|-----10-9--7----|--5--2L---|
--7-----------7-------------|-------|-----12-10-8----|--7--3L---|
----------------------------|-------|----------------|----------|
----------------------------|-------|----------------|-----4----|
----------------------------|-------|----------------|----------|
----------------------------|-------|----------------|----------|


--2--10-9--7----|--9--------14-14L-----------|--14-10-9--7----|--5--0----|
--3--12-10-8----|--10-------10-10L-----------|--10-12-10-8----|--5--2----|
----------------|--11------------------------|----------------|--6--2----|
----------------|----------------------------|----------------|----------|
----------------|----------------------------|----------------|----------|
----------------|----------------------------|----------------|----------|


--------------------3--5----|--7--5-----10L------10------|
--------------------3-------|--------8-------------------|
----------------------------|----------------------------|
----------------------------|----------------------------|
----------------------------|----------------------------|
----------------------------|----------------------------|


--------------7--5--2h-3----|--2----|-----10-9--7----|
--------------8-----3-------|--3----|----------------|
----------------------------|--2----|----------------|
----------------------------|-------|----------------|
----------------------------|-------|----------------|
----------------------------|-------|----------------|


--5-----------------------0-----------------0--2----|
--5-----------------------2-------------------------|
--6-------------------------------------------------|
----------------------------------------------------|
--0-------------------------------------------------|
----------------------------------------------------|


--3--2--0-------------------|--3--7----|--5----|-------||
-----------3L-3-------------|----------|-------|-------||
----------------------------|----------|-------|-------||
----------------------------|----------|-------|-------||
----------------------------|----------|-------|-------||
----------------------------|----------|-------|-------||




Legend
L - tied note
x - dead note
h - hammer on/pull off
b - bend
s - slide
~ - vibrato
g - ghost note
> - accentuated note
t - trill
M - palm mute
. - staccato
P - popping (bass)
S - slapping (bass)
+ - tapping
W - wide vibrato
< - fade in
w - whammy bar
= - tremolo picking
v - brush up
^ - brush down
V - pick stroke up
n - pick stroke down

2 comments on Aerith's Theme (Duet)

Wonderful

Great tab. I can't wait to play it!

...But maybe you should repack the download to include a .gp5? A lot of people still use Guitar Pro 5 and not very many people would have 6, I think. Just a suggestion.

Otherwise, it's great.

Thanks for this duet. You

Thanks for this duet. You should tab more duets