Login or Register to remove this ad. | Advertise Here

Aerith's Theme (A1i1988 Version) (Final Fantasy VII) Guitar Tab

Submitted: Sep 04, 2011 by Bhael

5
Average: 5 (2 votes)
Download | Listen
Game: Final Fantasy VII
Composer(s): Nobuo Uematsu
Style: Arrangement, Fingerstyle, Transcription
Series: Final Fantasy

Click here for a video example.

AutoScroll: Slow | Medium | Fast
                                 Aerith Theme        
                              Final Fantasy VII                           
                                Nobuo Uematsu




     E  E  H.              E  E  H.              E  E  E  E  E  E  E  E   
E||---------------------|---------------------|--------------------------|
B||--------1------------|---------------------|--------1--0--3--1-----0--|
G||-----0---------------|--3------------------|-----0--------------2-----|
D||--2------------------|-----5---------------|--2-----------------------|
A||---------------------|--------5------------|--------------------------|
E||---------------------|---------------------|--------------------------|


  H        H           E  E  Q    Q    Q       E  E  Q    Q    E  S S  
--------------------|-----------------------|-------------------------|
--------------------|--------1--------------|-------------------------|
--0-----------------|-----0-----------------|--3----------------------|
-----------0--------|--2-----2----0---------|-----5-----------------0-|
--------------------|------------------3----|--------5----0-------3---|
--------------------|-----------------------|------------------3------|


  Q    Q    E  E  E  E     Q    Q    Q    Q       E  E  E  E  E  E  E  E   
------------------------|----------------------|--------------0-----------|
-------4----------------|----------------------|--------1--3-----1--0--3--|
------------------------|-------0--------------|-----0--------------------|
------------1--0-----0--|------------3---------|--------------------------|
--3---------------3-----|--3-------------------|--3-----------------------|
--4---------------------|--1--------------1----|--------------------------|


  E  E  E  E  E  E  E  E     E  E  E  E   E   E  E  E   
--------------------------|--0-----------(0)-----0--1--|
--1-----------------1--3--|--------1-------------------|
-----0-----0-----0--------|-----------2----------------|
--------3-----2-----------|-----2-------------2--------|
--------------------3--2--|--0-------------------------|
--------------------------|----------------------------|


                                          ^              
  E  E  E  E  Q    E  E     E  E   E  E   E  E  S  S E   
--3-----------0----5--7--|--8---------------------------|
--------0----------------|--------10------------8-10-8--|
-----------0-------------|---------------10-------------|
-----2-------------------|---------7-----10-------------|
-------------------------|--8---------8-----------------|
--3----------------------|-----8-------------8----------|


  E  E  E  E  E  E  E  E     E  E  E  E  E  E  E     
-----------0--------------|------------------------|
-----------------1--------|-----------0------------|
-----7-----5-----0--------|--------0-----------0---|
--5-----5-----5-----2-----|--2--4--------2--4------|
-----------------------2--|------------------------|
--------------------------|------------------------|


  E  E  E  E  E  E  E  E     E  E  E  E  E  E  E  E   
--------------------------|--------------5-----------|
--------------0-----------|-----------------------1--|
--2--------0--0-----2--0--|--------0-----5--0--2-----|
-----2--4--------2--4-----|-----3-----7--------------|
--2-----------------------|--3-----------------------|
--------------------------|--1-----------------------|


  E  E  E  E  E  E  E  E     E  E  E  E  E  E  E  E   
--3-----------1-----3--0--|--------------------------|
-----------1--------------|--0-----------3-----------|
-----0--2--------0--2-----|-----------0--0--------0--|
--3-----------------------|-----2--4--------2--4-----|
--------------------------|--2-----------2-----------|
--------------------------|--------------------------|


                                               ^                            
  E  E  E  E  E  E  E  E     E  E  E  E  E  E  Q       Q    Q    Q    Q     
--------------------------|-------------------------|-------8----7----5----|
--1-----------0--------0--|--1--------------1--1----|--L-------------------|
--0--------0--------2--0--|-----------0--2-----2----|--L-------------------|
-----2--4--------2--4-----|--------3-----------3----|--L-------------------|
--2-----------------------|-----3-------------------|----------------------|
--------------------------|--1----------------------|----------------------|


  Q    E  E  E  E  Q       E  E  E  E   E  E   Q     
--3----------0----------|--------8------------------|
------------------------|--------------12-----10----|
------------------------|---------------------------|
-------------2-----2----|---------------------------|
-------3----------------|--8-----8-----10------8----|
----------3-----3-------|-----8-----8------8--------|


  Q    E   E   E  E  E  E     E  E  E  E  E  E  Q     
--7-------12--12-----------|--------8-----7-----5----|
---------------------------|-------------------------|
--9---------------------9--|-------------------------|
---------------------9-----|-------------------------|
-------7------10-----------|-----8-----8-----8-------|
-----------7------7--------|--5----------------------|


  E  E  E  E  E  E  E  E     Q    Q    Q    E  E     E  E  E  Q    E  E  E   
--3-----------------------|--------------------0--|--1--0-------------------|
--------------3--------1--|--1---------3----3-----|--------3--1-------------|
--------------2-----2-----|--2---------4----------|----------------------2--|
-----0--2--3--------------|-------0---------------|-------------------3-----|
-----------------3--------|-----------------------|----------------3--------|
--------------------------|-----------------------|--1--------1-------------|


  E  E  E  E  E  E  E  E     E  E  E  E  H           Q    Q    Q    Q     
--------------1--0--------|-----------------------|-------8----7----5----|
--1--------1--------1--3--|--1--------------------|----------------------|
--------2-----------------|-----------0-----------|----------------------|
-----3--------------------|--------------2--------|--L-------------------|
--------------------------|--3-----3--------------|----------------------|
--------------------------|-----3-----------------|----------------------|


  H        Q.     S S    E  E  E  E  H           E  E   E  E  E  E  E  E   
--3-----------------0-|--1--0-----------------|-----8---------------------|
-----------3------3---|--------3--1--L--------|--------10--8--6-----------|
----------------------|-----------------------|------------------5--------|
--3-------------------|-----------------------|---------------------7--3--|
----------------------|-----------------------|--8------------0-----------|
----------------------|-----------------------|---------------------------|


  ^                                                                        
  E  E  E  E  H           E  E  E  E  H           E  E  E  E  E  E  E  E   
-----------------------|-----------------------|--------------------------|
--------1--L--L--------|-----------------------|--------1--0--3--1-----0--|
-----0-----------------|--3--------------------|-----0--------------2-----|
--2--------------------|--5--5-----------------|--2-----------------------|
--3--------------------|--------5--L--L--------|--3-----------------------|
-----------------------|-----------------------|--------------------------|


  H        Q    Q       E  E  E  E  E  E  E   E    
---------------------|----------------------------|
---------------------|--------1-------------------|
--0------------------|-----0-----------------(0)--|
-----------0---------|--2-----------0-----2-------|
---------------------|--3-----3-------------------|
----------------3----|-----------3-----3----------|


  E  E  E   E   E   E   E  H  H     E  E  E  E  E  E  E  E   
--------------------------------|--------------------------|
--------------------------------|--------4-----------------|
--3--0--------------------------|-----------3--------------|
-----0--0--(0)-----(0)--------0-|-----1--------1--0-----0--|
--------1-------0-------1--3----|--3-----------------3-----|
--3-----------------------------|--4-----------------------|


                          v                  
  E  E  E  E  H           W                  
-----------------------|-------------------||
--------------1--------|--1----------------||
-----------2-----------|--0----------------||
--------3--------------|--2----------------||
--3--3-----------------|--3----------------||
--1--------------------|--0----------------||




Duration Legend
---------------
W - whole
H - half
Q - quarter
E - 8th
S - 16th
T - 32nd
X - 64th
. - note dotted
|-n-|  - n-tuplets


Tablature Legend
----------------
L - tied note
x - dead note
g - grace note
(n) - ghost note
> - accentuded note
NH - natural harmonic
AH - artificial harmonic
TH - tapped harmonic
SH - semi harmonic
PH - pitch harmonic
h - hammer on
p - pull off
b - bend
br - bendRelease
pb - preBend
pbr - preBendRelease
brb - bendReleaseBend
\n/ - tremolo bar dip
\n - tremolo bar dive
-/n - tremolo bar Release up
/n\ - tremolo bar inverted dip
/n - tremolo bar return
-\n - tremolo bar Release down
S - shift slide
s - legato slide
/ -  slide into from below or out of upwards
\ -  slide into from above or out of downwards
~ - vibrato
W - wide vibrato
tr - trill
TP - tremolo picking
T - tapping
S - slap
P - pop
< - fade in
^ - brush up
v - brush down

1 comment on Aerith's Theme (A1i1988 Version)

good stuff bhael!

5

good stuff bhael!