Login or Register to remove this ad. | Advertise Here

Aerith's Theme (Final Fantasy VII) Guitar Tab

Submitted: Dec 12, 2011 by wayfaerer

4
Average: 4 (2 votes)
Download | No audio :(
Game: Final Fantasy VII
Composer(s): Nobuo Uematsu
Style: 2 or more instruments, Arrangement
Series: Final Fantasy

This song is also called Aeris' Theme

AutoScroll: Slow | Medium | Fast
Song: Aeris' Theme/Aerith's Theme
Game: Final Fantasy VII
Composed by Nobuo Uematsu
Tablature by wayfaerer

Drop-D Tuning (DADGBe--both guitars)


as with my other submissions, this is my own original arrangement; thus no audio will be included because it would only confuse some people i think.
the melody of the song is still the same; and as always, any feedback would be appreciated, and questions will be answered to the best of my ability.

-wayfaerer



(clean--both guitars)

|-------10~---/8---------------10----12---------------`0~---------10~---/8-------------------------------------------|
|----10----------10---------10----14----15-12-14---------------10----------10----------------------------------------|
|-11----------------9~---11----------------------14~--------11----------------9~---7-9-7~--10-9-7-9-7~---------------|
|--------------------------------------------------------------------------------------------------------------------|
|--------------------------------------------------------------------------------------------------------------------|
|--------------------------------------------------------------------------------------------------------------------|
|                                                                                                                    |
|                                                                                                                    |
|--------------------------------------------------------------5-(10~)---8--5----------------------------------------|
|-----------------------------------------------------------7------8~----5----------------------------------------3~-|
|-----------------------------------------------------------x------7~----5----9~----------------------------2---2-2~-|
|-----------------------------------------------------------4------5~----5-------------0~---0~------0~----4---4---4~-|
|-----------------------------------------------------------0------------7-------------1~---5~------0~--5---------5~-|
|-----------------------------------------------------------0------------7-------------3~---8~------0~---------------|


|------------------------------------------------------------------------------------------------------------------------------------------------------|
|---------------------------------------------15-------------------------10--------------------12-10-----------------10-------------------**12-14-15~--|
|-7-9-9//11~--------11-12-12/14~--------14-16-----16-------14h16-14~--------11------------------------------------------11-----------------------------|
|-----------------------------------------------------17~----------------------11~-------------------12~-------------------11~-------------------------|
|------------------------------------------------------------------------------------------------------------------------------------------------------|
|------------------------------------------------------------------------------------------------------------------------------------------------------|
|                                                                                                                                                      |
|                                                                                                                                                      |
|----------------------------------------------------------------------------------9---7---5~------------7---5-----------------9---7---5~--------------|
|---------------------------------------------3---`0-------------------------------x-------3~------------x-------8~------------x-------3~--------------|
|-----------------------------------2~--------0------`0~---2 h 4-2~----------------6-------0~------------4-------5~---------6~-6-------0~--------------|
|----------------0~---------------4-----------0------------0-----------------------7-------0~------------5-------5~---------4~-7-------0~--------------|
|--------------2----------------4-------------x------------0-----------------------0----------------------------------------4~-0-----------------------|
|------------4--------------------------------5------------0----------------------------------------------------------------4~-------------------------|


** hit the distortion here if you like


|------------------------------------------------/14-14~-\----------------------------------------------------------`5-----------------------------------|
|-----/15--14--12--10~----------/15--14--12--14~--------------------/15--14--12--10~--------\5~----`5-`7-`7h8-`7-`5----------------`/8-`7-`3--`5----`3~--|
|----------------------\11~--------------------------------------------------------------------------------------------`7~-------------------------------|
|--------------------------------------------------------------------------------------------------------------------------------------------------------|
|--------------------------------------------------------------------------------------------------------------------------------------------------------|
|--------------------------------------------------------------------------------------------------------------------------------------------------------|
|                                                                                                                                                        |
|                                                                                                                                                        |
|--------------------------------------------------------------------------------------------------------------------------------------------------------|
|---------------------------------------------------------------------------------------------------------------------------------------------------`3~--|
|-------------------------------------------------------------------------------------------------------------------`2--------------`0--------------`2~--|
|------------------------4~-------------------4~----(7~)-------------------------------------------`2-`4-`4h5-`4-`2---------`2--`4------------------`0~--|
|-5~----------------0~---5~---5~--------------4~----(5~)-----0---5~-----------------`4--`2--`0-------------------------`5~--------------------------`0~--|
|-5~----------------0~---0~---5~--------------4~----------6------5~---------------------------------------------------------------------------------`0~--|


KEY

h-hammer on
/-slide up
\-slide down
//-"carried" slide up
~-tied note
`-soft note
x-muted
()-notes in parentheses are optional

1 comment on Aerith's Theme

aw man

jesus... i apologize for the width guys, realy, thats a pain.

damn