Login or Register to remove this ad. | Advertise Here

Aerith's Theme (Final Fantasy VII) Guitar Tab

Submitted: Oct 24, 2010 by Daugreano

3.5
Average: 3.5 (2 votes)
Download | Listen
Game: Final Fantasy VII
Composer(s): Nobuo Uematsu
Style: Transcription
Series: Final Fantasy

This song is also called Aeris' Theme

AutoScroll: Slow | Medium | Fast
Song: Aeris'(Aerith's) Theme 
Game: Final Fantasy VII
Composer: Nobuo Uematsu
Tabbed by: Daugreano


Guitar:

   W        E   E   H.       E   E   H.       E   E   E   E   E   E   E   E     H     H
E|--------|----------------|----------------|---------------------------------|-------------|
B|--------|---------3------|-1--------------|---------3---2---5---3---0---2---|-------------|
G|--------|-----2----------|-----2----------|-----2---------------------------|-2-----------|
D|--------|-4--------------|---------2------|-4-------------------------------|-------2-----|
A|--------|----------------|----------------|---------------------------------|-------------|
E|--------|----------------|----------------|---------------------------------|-------------|

   E   E   H.       E   E   H     E   S  S    Q    S  S  S  S  Q    E   E     H.     E   E
E|----------------|-------------------------|-------------------------------|----------------|
B|---------3------|-1-----------------------|-------------------------------|----------------|
G|-----2----------|-----2-------------------|-------------------------------|----------------|
D|-4--------------|---------2---------0--2--|-0----3--2--0--2--0----3---2---|-0------0---2---|
A|----------------|-------------------------|-------------------------------|----------------|
E|----------------|-------------------------|-------------------------------|----------------|

   H.     E   E     H.     E   E     Q    H     Q      E   S  H     S  E   E     H.     E   E
E|----------------|----------------|-----------------|-------------------------|----------------|
B|----------------|--------0---2---|-3----0----------|-----0-------------------|--------0-------|
G|------------0---|-2--------------|-0----------0----|-2------2--------2-------|------------2---|
D|-4------4---0---|-4--------------|-0---------------|-4-------------------4---|----------------|
A|-5------5-------|-4--------------|-2---------------|-5-----------------------|-4--------------|
E|----------------|----------------|-----------------|-------------------------|----------------|

   H.     E   E     H     Q    E   S  S    H     E   E   E   E     Q    Q.    E   E   E
E|----------------|----------------------|-----------------------|------------------------|
B|----------------|----------------0--2--|-3---------3---2---0---|------------3---2---0---|
G|--------2-------|------------2---------|-0---------4---2---0---|-2----------4---2---0---|
D|-0----------4---|-------4--------------|-0---------------------|-4----4-----------------|
A|----------------|-4--------------------|-2---------------------|------5-----------------|
E|----------------|----------------------|-----------------------|------------------------|

   Q.   S  Q.    E   E   E     Q    H     E   E     S  S  S  H     S  S  S  S  S   
E|------2--2-----------------|--------------------|-------------------------------|
B|-2-------------3---2---0---|--------------------|-0--------3--------0-----------|
G|-2----2--2-----4---2---0---|-2----------0---2---|-0--2--0-----------0--2-----0--|
D|---------------------------|-2----2-----2---4---|----4--2--0-----------4--4--2--|
A|---------------------------|------4-------------|-------------------------5-----|
E|---------------------------|--------------------|-------------------------------|

   H     E   E   E   E     H     Q.    S  S    S  S  S  Q    S  Q    Q      E   E   H.
E|-----------------------|-------------------|----------------------------|----------------|
B|-----------3---2---0---|-------------------|-----------------------0----|---------3------|
G|-----------------------|-2-----------------|-0----------------0---------|-----2----------|
D|-4---------------------|-------2-----2--4--|----4--2--0-----------------|-4--------------|
A|-5---------------------|-------------------|----------------------------|----------------|
E|-----------------------|-------------------|----------------------------|----------------|

   E   E   H.       E   E   E   E   E   E   E   E     H     H       E   E   H.
E|----------------|---------------------------------|-------------|----------------|
B|-1--------------|---------3---2---5---3---0---2---|-------------|---------3------|
G|-----2----------|-----2---------------------------|-2-----------|-----2----------|
D|---------2------|-4-------------------------------|-------2-----|-4--------------|
A|----------------|---------------------------------|-------------|----------------|
E|----------------|---------------------------------|-------------|----------------|

   E   E   H     E   S  S    Q    S  S  S  S  Q    E   E     W
E|-------------------------|-------------------------------|--------|
B|-1-----------------------|-------------------------------|--------|
G|-----2-------------------|-------------------------------|--------|
D|---------2---------0--2--|-0----3--2--0--2--0----3---2---|-0------|
A|-------------------------|-------------------------------|--------|
E|-------------------------|-------------------------------|--------|



1 comment on Aerith's Theme

Great Beginner Tab!

Timing of the sound file is a little off, but thats understandable, can barely work the programs myself. But the tab itself sounds just fine and is perfect for budding guitarist, Keep it up