Login or Register to remove this ad. | Advertise Here

Prelude (Final Fantasy VI) Guitar Tab

Submitted: Mar 03, 2012 by hslesperance (Last updated: Aug 12, 2012)

5
Average: 5 (6 votes)
Download | Listen
Game: Final Fantasy VI
Composer(s): Nobuo Uematsu
Style: Alternate picking, Arrangement
Series: Final Fantasy

AutoScroll: Slow | Medium | Fast
Prelude
Final Fantasy VI
Composed by Nobuo Uematsu
Arranged by hslesperance
3/3/12

Standard Tuning


  E E E E E E E E   E E E E E E E E   E E E E E E E E   E E E E E E E E
|-------------0-3-|-8-3-0-----------|---------------0-|-5-0--------------|
|---------1-3-----|-------3-1-------|-----------0-1---|-----1-0----------|
|-------0---------|-----------0-----|---------2-------|---------2--------|
|---0-2-----------|-------------2-0-|-------2---------|-----------2------|
|-3---------------|-----------------|-0-2-3-----------|-------------3-2--|
|-----------------|-----------------|-----------------|------------------|


  E E E E E E E E   E E E E E E E E   E E E E E E E E   E E E E E E E E
|-------------0-3-|-8-3-0-----------|---------------0-|-5-0-------------|
|---------1-3-----|-------3-1-------|-----------0-1---|-----1-0---------|
|-------0---------|-----------0-----|---------2-------|---------2-------|
|---0-2-----------|-------------2-0-|-------2---------|-----------2-----|
|-3---------------|-----------------|-0-2-3-----------|-------------3-2-|
|-----------------|-----------------|-----------------|-----------------|


  E E E E E E E E   E E E E E E E E   E E E E E E E E   E E E E E E E E
|-------------1-3-|-5-3-1-----------|-------------3-5-|-7-5-3-----------|
|-----------1-----|-------1---------|---------0-3-----|-------3-0-------|
|-------0-2-------|---------2-0-----|-----0-2---------|-----------2-0---|
|-----3-----------|-------------3---|---0-------------|---------------0-|
|-0-3-------------|---------------3-|-2---------------|-----------------|
|-----------------|-----------------|-----------------|-----------------|


  E E E E E E E E   E E E E E E E E   E E E E E E E E   E E E E E E E E
|---------------3-|-4-3-------------|-------------1-5-|-6-5-1-----------|
|-----------1-4---|-----4-1---------|-----------3-----|-------3---------|
|-------0-1-------|---------1-0-----|-------2-3-------|---------3-2-----|
|-----1-----------|-------------1---|---0-3-----------|-------------3-0-|
|---3-------------|---------------3-|-1---------------|-----------------|
|-4---------------|-----------------|-----------------|-----------------|


    a a W           H     H      a W           Q   Q  Q  Q
||---------------|-------------|------------|---------------|
||o-1h3p1--------|--0-----3----|-0h1--------|--3---1--0--3--|
||------0--------|-(0)---------|---2--------|-(2)-----------|
||------2--------|-(2)---------|---2--------|-(2)-----------|
||o--------------|-------------|------------|---------------|
||---------------|-------------|------------|---------------|
                   +W                         +W


  a a W           H     H      E E H.         Q   Q  Q  Q
|--------------|-------------|---0---------|--0------------|
|-1h3p1--------|--0-----3----|-3---1-------|------3--1--0--|
|-----0--------|-(0)---------|-2-----------|-(2)-----------|
|-----2--------|-(2)---------|-2-----------|-(2)-----------|
|--------------|-------------|-------------|---------------|
|--------------|-------------|-------------|---------------|
                 +W            W             +W


  a W          H    H      H.      Q     H     H
|------------|-----------|------------|--------3----|
|------------|-----------|-0-------1--|--3----------|
|-1h2--------|-0----2----|-0----------|-(0)---------|
|---3--------|-3---------|-0----------|-(0)---------|
|---3--------|-3---------|------------|-------------|
|------------|-----------|------------|-------------|
               W           W            +W


  a Q  E E H      Q  Q  Q  Q    a Q  E a a E H      Q  Q  Q  Q
|-0h1-----------|-------------|-2h3---------------|--------------||
|---1--4-3-1----|-------------|---3--6p4h6p4-3----|-------------o||
|---1-----------|-1--0--------|---3---------------|-3--2--0------||
|---------------|-------3--1--|-------------------|----------3---||
|---------------|-------------|-------------------|-------------o||
|---------------|-------------|-------------------|--------------||

h - hammer on
p - pull off

W - whole
H - half
Q - quarter
E - 8th
S - 16th
a - acciaccatura
+ - note tied to previous
. - note dotted

7 comments on Prelude

good work, you could make the

5

good work, you could make the left hand a bit smoother, one suggestion:
(i wrote the left number finger numbers underneath)

|-------------0---|-8---0-----------|-----------------|-5----------------|
|---------1-3---8-|---8---3-1-------|-----------0---5-|---5- -0----------|
|-------0---------|-----------0-----|---------2---5---|-----5---2--------|
|---0-2-----------|-------------2-0-|-------2---------|-----------2------|
|-3---------------|-----------------|-0-2-3-----------|-------------3-2--|
|-----------------|-----------------|-----------------|------------------|
  3   2   1 4   3   4 3   3 1   2       1 3 1 2   2 3   4 3 2   2 1 3 1 
                                                  (or capo V)

sorry if it doesnt align, it

sorry if it doesnt align, it does when i press edit, but then doesnt when i submit.... you might have to copy paste it to a text editor or something.

You can use <pre> before, and

You can use <pre> before, and </pre> after to format it the way you want.

I added them for you, this time :-)

thanks auriplace, good to

thanks auriplace, good to know for next time

She's a good resource,

She's a good resource, kpnart!

i really like this tab my

5

i really like this tab

my favorite game of all time, and my favorite ost of all time, though maybe chrono cross; either way, awesome job hsl, this is some really goodstuff

kp's comment is a nice variation on it too i think, flows a little for me

ABSO-BLOODY-LUTELY!!!!!

5

ABSO-BLOODY-LUTELY!!!!! Great arrangement Hsl

I've attempted to tab this before and could only find random notes here and there hahaha XD

I can play it but a bit slower than the actual song :-)
I messed around with some variations involving the 8th fret but I like yours better. Good stuff dude