Login or Register to remove this ad. | Advertise Here

My Home, Sweet Home (Final Fantasy V) Guitar Tab

Submitted: Dec 13, 2011 by hashel

0
Download | Listen
Game: Final Fantasy V
Composer(s): Nobuo Uematsu
Style: 2 or more instruments, Transcription
Series: Final Fantasy

AutoScroll: Slow | Medium | Fast
Melody

E |----||----------17---|--16-------16---------------|----------------|
B |----||----19-19------|-----19-17----19------------|----------------|
G |----||o16------------|--------------------16------|-----16---------|
D |----||o--------------|----------------------------|--19------------|
A |----||---------------|----------------------------|----------------|
E |----||---------------|----------------------------|----------------|


-----------17---|--16-------16-------19------|--17-19---------|----------------|
-----19-19------|-----19-17----19------------|----------------|-----------10---|
--16------------|----------------------------|----------------|-----11-11------|
----------------|----------------------------|----------------|--9-------------|
----------------|----------------------------|----------------|----------------|
----------------|----------------------------|----------------|----------------|


----------------------------|----------------|----------------|
--9--------9----------------|----------------|-----------10---|
-----11-9-----11------------|----------------|-----11-11------|
--------------------9-------|-----9----------|--9-------------|
----------------------------|--12------------|----------------|
----------------------------|----------------|----------------|


----------------------------|----------------|----------------------------|
--9--------9--------12------|--10-12---------|--12----12-14---------------|
-----11-9-----11------------|----------------|--------------14-11---------|
----------------------------|----------------|--------------------14------|
----------------------------|----------------|----------------------------|
----------------------------|----------------|----------------------------|


----------------|----------------|----------------|--------------------19------|
----------------|----------------|-----------10---|--9--------9----------------|
--14-13-11------|----------------|-----11-11------|-----11-9-----11------------|
----------------|----------------|--9-------------|----------------------------|
-----------14---|--12-14---------|----------------|----------------------------|
----------------|----------------|----------------|----------------------------|


--17-19---------|----------------|----------------|----------------|
----------------|----------------|----------------|----------------|
----------------|----------------|--2--1----------|----------------|
----------------|-----4--4--2----|-----------4----|--4--2----------|
----------------|--2-------------|--------2-------|----------------|
----------------|----------------|----------------|----------------|


----------------|----------------|----------------|----------------|
----------------|----------------|----------------|-----------10---|
----------------|--2--1-----4----|--2--4----------|-----11-11------|
-----4--4--2----|--------4-------|----------------|--9-------------|
--2-------------|----------------|----------------|----------------|
----------------|----------------|----------------|----------------|


----------------------------|----------------|----------------|
--9--------9----------------|----------------|-----------10---|
-----11-9-----11------------|----------------|-----11-11------|
--------------------9-------|-----9----------|--9-------------|
----------------------------|--12------------|----------------|
----------------------------|----------------|----------------|


----------------------------|----------------|----------------------------|
--9--------9--------12------|--10-12---------|--12----12-14---------------|
-----11-9-----11------------|----------------|--------------14-11---------|
----------------------------|----------------|--------------------14------|
----------------------------|----------------|----------------------------|
----------------------------|----------------|----------------------------|


----------------|----------------|----------------|--------------------19------|
----------------|----------------|-----------10---|--9--------9----------------|
--14-13-11------|----------------|-----11-11------|-----11-9-----11------------|
----------------|----------------|--9-------------|----------------------------|
-----------14---|--12-14---------|----------------|----------------------------|
----------------|----------------|----------------|----------------------------|


--17-19--------|||
---------------|||
--------------o|||
--------------o|||
---------------|||
---------------|||



Harmony

E |----||---------------|----------------------------|----------------|
B |----||---------------|--5-----2-------------------|-----5----------|
G |----||o4--------2----|----------------------------|--2--4----------|
D |----||o--------------|--------------4-------------|----------------|
A |----||---------------|----------------------------|----------------|
E |----||---------------|----------------------------|----------------|


----------------|----------------------------|----------------|----------------|
----------------|--5-----2-------------------|----------------|----------------|
--4--------2----|----------------------------|--2--4----------|----------------|
----------------|--------------4-------------|----------------|-----------2----|
----------------|----------------------------|----------------|--2-------------|
----------------|----------------------------|----------------|----------------|


----------------|----------------------------|----------------|----------------|
----------------|----------------------------|----------------|----------------|
----------------|----------------------------|----------------|----------------|
----------------|----------------------------|-----------2----|-----------2----|
--------5--2----|--------------------2--4----|--5-------------|--------5-------|
----------------|--5-----3-----3--5----------|----------------|----------------|


----------------------------|----------------------------|
----------------------------|----------------------------|
----------------------------|----------------------------|
--4-----5-------------------|-----------------4--2-------|
--------------5--4--2-------|--2-----2--4--5-------------|
-----------------------5----|----------------------------|


----------------------------|----------------|----------------|----------------|
----------------------------|----------------|----------------|----------------|
----------------------------|----------------|----------------|----------------|
--2-----------------5-------|--4--2----------|-----------2----|-----------2----|
-----5--4--2----------------|----------------|--2-------------|--------5-------|
--------------3-------------|----------------|----------------|----------------|


----------------|----------------------------|----------------------------|
----------------|----------------------------|----------------------------|
----------------|----------------------------|----------------------------|
--4--5----------|-----------------4--2-------|--------2-------------------|
----------------|--2-----2--4--5--------5----|--4--5-----4--5-----4-------|
----------------|----------------------------|----------------------------|


----------------|----------------------------|----------------------------|
----------------|----------------------------|----------------------------|
----------------|----------------------------|----------------------------|
----------------|-----------------4--2-------|--------2-----------2-------|
--2--4----------|--2-----2--4--5--------5----|--4--5-----4--2-------------|
----------------|----------------------------|----------------------------|


----------------|----------------|----------------|----------------------------|
----------------|----------------|----------------|----------------------------|
----------------|----------------|----------------|----------------------------|
-----5----------|-----------2----|----------------|----------------------------|
--5-------------|--2-------------|--------5--2----|--------------------2--4----|
----------------|----------------|----------------|--5-----3-----3--5----------|


----------------|----------------|----------------------------|
----------------|----------------|----------------------------|
----------------|----------------|----------------------------|
-----------2----|-----------2----|--4-----5-------------------|
--5-------------|--------5-------|--------------5--4--2-------|
----------------|----------------|-----------------------5----|


----------------------------|----------------------------|----------------|
----------------------------|----------------------------|----------------|
----------------------------|----------------------------|----------------|
-----------------4--2-------|--2-----------------5-------|--4--2----------|
--2-----2--4--5-------------|-----5--4--2----------------|----------------|
----------------------------|--------------3-------------|----------------|


----------------|----------------|---------------|||
----------------|----------------|---------------|||
----------------|----------------|--------------o|||
-----------2----|-----------2----|--4--5--------o|||
--2-------------|--------5-------|---------------|||
----------------|----------------|---------------|||

3 comments on My Home, Sweet Home

You have the measure bars set

You have the measure bars set every 4 beats, but they should be every three beats. The song is in 3/4 time.

Does it means the tab is not

Does it means the tab is not good?

Well, if you took out the

Well, if you took out the measure lines, it'd be less confusing. But if you put them in the right place, even better :-)