Login or Register to remove this ad. | Advertise Here

Lindblum (Final Fantasy IX) Guitar Tab

Submitted: Mar 05, 2010 by Max_depa

5
Average: 5 (4 votes)
Download | Listen
Game: Final Fantasy IX
Composer(s): Nobuo Uematsu
Style: Arrangement, Fingerstyle
Series: Final Fantasy

AutoScroll: Slow | Medium | Fast
Lindblum - Final Fantasy IX
Arranged by: Max_depa
Composed by: Nobuo Eumatsu


Drop D Tuning


     Q    E  E  Q    E  E     Q    E  E  E  E  E  E     Q    E  E  E  E  E  E   
E||------------------------|-------------------------|-------------------------|
B||------------------------|-------------------------|-------------------------|
G||------------------------|-------------------------|-------------------------|
D||------------------------|-------------------------|-------------------------|
A||--3------------------1--|--3-------------------1--|--3----------------------|
D||----------5--6----------|----------5-----6--------|----------5--6--3--0--5--|


    W          Q    E  E  Q    E  E     Q    E  E  E  E  E  E   
|-----------|------------------------|-------------------------|
|-----------|-------4----------3-----|-------4--------------3--|
|-----------|------------------------|-------0--------5-----3--|
|-----------|-------5----------3-----|----------------6-----3--|
|-----------|--3------------------1--|--3-------------6--1--1--|
|-----------|----------5--6----------|----------5--6-----------|


  Q    E  E  E  E  Q       E  E  E  E  E  E  E  E     Q    E  E  Q    E  E   
------------------------|--------------------------|------------------------|
-------4-----------3----|--4--3--1--0--1--0--------|-------4----------3-----|
-------0--------5--0----|--------------1--0--1--0--|------------------------|
----------------6--3----|--------------------3--1--|-------5----------3-----|
--3-------------6--1----|--3-----------------------|--3------------------1--|
----------5--6----------|--------------------------|----------5--6----------|


  Q    E  E  E  E  E  E     Q    E  E  E  E  Q       Q    Q    E  E  Q     
-------------------------|------------------------|-----------------------|
-------4--------------3--|-------4-----------3----|--4--------------------|
-------0--------5-----3--|-------0--------5--0----|--0--------------------|
----------------6-----3--|----------------6--3----|-----------------------|
--3-------------6--1--1--|--3-------------6--2----|--3------------3-------|
----------5--6-----------|----------5--6----------|------------------5----|


  Q    E  E  Q    E  E     Q    E  E  E  E  E  E     Q    E  E  E  E  Q     
------------------------|-------------------------|------------------------|
-------1----------0-----|-------1--------------0--|-------1-----------0----|
------------------------|----------------2-----0--|----------------2-------|
-------2----------0-----|-------2--------3-----0--|-------2--------3--0----|
--0---------------------|--0-------------3--------|--0-------------3--7----|
----------2--3-------5--|----------2--3-----5-----|----------2--3----------|


  E  E  E  E  E  E  E  E     Q    E  E  Q    E  E     Q    E  E  E  E  E  E   
--------------------------|------------------------|-------------------------|
--1--0--------------------|-------1----------0-----|-------1--------------0--|
--------2--1--2--1--------|------------------------|----------------2-----0--|
--------------3--2--3--2--|-------2----------0-----|-------2--------3-----0--|
--0-----------------5--3--|--0---------------------|--0-------------3--------|
--------------------------|----------2--3-------5--|----------2--3-----5-----|


  Q    E  E  E  E  Q       Q    H.              E  E  E  E  E  E  E  E   
------------------------|--------------------|--1-----------------------|
-------1-----------0----|--1-----------------|--4--1-----1--2--4--2--1--|
----------------2-------|--------------------|--------3-----------------|
-------2--------3--0----|--2-----------------|--------------------------|
--0-------------3--6----|--0-----------------|--------------------------|
----------2--3----------|--------------------|--------------------------|


  E  E  E  E  Q    Q       E  E  E  E  E  E  E  E     E  E  E  E  Q    Q     
--0-----------0---------|--------------------------|------------------------|
--2--4--2--4------------|--0-----------0--2--0-----|--3--2--0--2--3---------|
------------------------|--4--3--1--3-----------3--|--4---------------------|
------------------------|--------------------------|------------------------|
------------------------|--------------------------|------------------------|
------------------------|--------------------------|------------------------|


  E  E  E  E  E  E  E  E     E  E  E  E  Q    Q       E  E  E  E  E  E  E  E   
--------------------------|------------------------|--------------------------|
--2--------------0--------|--1--0-----0--1---------|--------------------------|
--2--1-----1--2-----2--1--|--2-----2---------------|--------------------0--2--|
--------4-----------------|------------------------|-----------0--1--3--------|
--------------------------|------------------------|--3--2--3-----------------|
--------------------------|------------------------|--------------------------|


  W                   Q    E  E  Q    E  E     Q    E  E  Q    E  E   
-------------------|------------------------|------------------------|
--3----------------|------------------------|------------------------|
--4----------------|------------------------|------------------------|
--4----------------|------------------------|------------------------|
-------------------|--1-------1-------------|------------------------|
-------------------|-------------3-------3--|--4-------4--6-------6--|


  Q    E  E  Q    E  E     Q    Q    E  E  E  E     Q    E  E  E  E  E  E   
------------------------|------------------------|-------------------------|
------------------------|------------------------|-------------------------|
------------------------|------------------------|--3-------3--2-----------|
------------------------|-------1----3--1--------|-------3--------3--------|
--1-------1--3-------3--|--4---------------4--3--|--1-------1--------3-----|
------------------------|------------------------|-------------3--------3--|


  E  E  E  E  E  E  Q       Q    E  E  E  E  E  E     E  E  E  E  Q    Q     
-------------------------|-------------------------|------------------------|
-------------------------|-------------------------|------------------------|
--3--3-----3--0----------|--2-------2--1-----------|--2--2-----2--1---------|
--------3--------2-------|-------2--------2--------|--------2--0--2---------|
--1-----4-----3-----3----|--0-------0--------2-----|--0--2--3---------------|
-------------------------|-------------2--------2--|------------------------|


  Q    E  E  E  E  E  E     E  E  E  E  E  E  Q       Q    E  E  E  E  E  E   
-------------------------|-------------------------|-------------------------|
-------------------------|-------------------------|--1----------------------|
--3----0--3--0-----------|--3--3--0--3--2----------|----------2--1-----------|
----------------2--------|-----------------4--0----|-------2--------2--------|
-------------3-----3--3--|--------1-----0----------|--0-------0--------2-----|
--5-------5--------------|--5----------------------|-------------2--------2--|


  E  E  E  E  E  E  E  E     
--------------------1--3---||
--------0--1--3--4---------||
--0--2--------------------*||
--------------------------*||
---------------------------||
--5-----------3------------||




Duration Legend
---------------
W - whole
H - half
Q - quarter
E - 8th
S - 16th
T - 32nd
X - 64th
. - note dotted
|-n-|  - n-tuplets


Tablature Legend
----------------
L - tied note
x - dead note
g - grace note
(n) - ghost note
> - accentuded note
NH - natural harmonic
AH - artificial harmonic
TH - tapped harmonic
SH - semi harmonic
PH - pitch harmonic
h - hammer on
p - pull off
b - bend
br - bendRelease
pb - preBend
pbr - preBendRelease
brb - bendReleaseBend
\n/ - tremolo bar dip
\n - tremolo bar dive
-/n - tremolo bar Release up
/n\ - tremolo bar inverted dip
/n - tremolo bar return
-\n - tremolo bar Release down
S - shift slide
s - legato slide
/ -  slide into from below or out of upwards
\ -  slide into from above or out of downwards
~ - vibrato
W - wide vibrato
tr - trill
TP - tremolo picking
T - tapping
S - slap
P - pop
< - fade in
^ - brush up
v - brush down

2 comments on Lindblum

this is really great & easy

5

this is really great & easy to play in std tuning also :)

Some parts are a little

5

Some parts are a little uncomfortable to swap to, but I suspect that's a problem on my end and not with the tab :P.

Good work Max.