Login or Register to remove this ad. | Advertise Here

Kuja's Theme (Final Fantasy IX) Guitar Tab

Submitted: Jun 07, 2010 by Daugreano

4
Average: 4 (1 vote)
Download | Listen
Game: Final Fantasy IX
Composer(s): Nobuo Uematsu
Style: Transcription
Series: Final Fantasy

AutoScroll: Slow | Medium | Fast
Song: Kuja's Theme
Game: Final Fantasy Ix
Composer: Nobuo Uematsu
Tabbedy by: Daugreano

Thank You, Rex LeRouge and Auriplane, your help is invaluable...

Guitar:
   
   
   E   E   E   E   E   E   E   E   E   E   E   E     E   E   E   E   E   E   E   E   E   E   E   E
E|-------------------------------------------------|-------------------------------------------------|
B|-------------------------------------------------|-------------------------------------------------|
G|-2-----------1-----------2-----------3-----------|-2-----------------------------------------------|
D|-----3---0-------0-----------3---0-------3-------|-----3-------3---0-------0-------0---------------|
A|---------------------0-----------------------1---|---------0-------------------0-------1-------1---|
E|-------------------------------------------------|---------------------1-------------------1-------|

    .        .
   W        W --------------  E   E   E   E   E   E   E   E   E   E   E   E    E   E   E   E   E   E   E   E   E   E   E   E
E|--------|--------|--------|-------------------------------------------------|-------------------------------------------------|
B|--------|--------|--------|-------------------------------------------------|-------------------------------------------------|
G|--------|--------|--------|-------------------------------------------------|-------------------------------------1-----------|
D|--------|--------|--------|-------------------------------------------------|-------------------------3---------------3-------|
A|-4------|-1------|-1------|-3-------3---2-------2---3-------3---4-------4---|-3-------3---3-------3-------3-------------------|
E|-4------|-1------|-1------|-----4-----------4-----------4-----------4-------|-----4-----------4---------------1-----------4---|


                                                 X2                                                X2
   E   E   E   E   E   E   E   E   E   E   E   E     E   E   E   E   E   E   E   E   E   E   E   E
E|-------------------------------------------------|-------------------------------------------------|
B|-------------------------------------------------|-------------------------------------------------|
G|-4-----------4-----------4-----------4-----------|-------------------------------------------------|
D|-----4-----------4-----------4-----------4-------|-7---4-------7---4-------7---4-------7---4-------|
A|---------2-----------2-----------2-----------2---|---------0-----------0-----------0-----------0---|
E|-------------------------------------------------|-------------------------------------------------|


   E   E   E   E   E   E   E   E   E   E   E   E     E   E   E   E   E   E   E   E   E   E   E   E
E|-------------------------------------------------|-------------------------------------------------|
B|-------------------------------------------------|-------------------------------------------------|
G|-------------------------------------------------|-------------------------6-----------9-----------|
D|-6-----------5-----------6-----------7-----------|-6-----------6---------------6-----------6-------|
A|-----4-----------4-----------4-----------4-------|-----4-----------4---------------7-----------7---|
E|---------4-----------3-----------4-----------4---|---------4-----------4---------------------------|

                 
                                                 X2       
   E   E   E   E   E   E   E   E   E   E   E   E     E   E   E   E   E   E   E   E   E   E   E   E
E|-------------------------------------------------|-------------------------------------------------|
B|-----0-----------0-----------0-----------0-------|-------------------------------------------------|
G|-12------0---12------0---12------0---12------0---|-------------------------------------------------|
D|-------------------------------------------------|-0-------0---------------0-------0---2-----------|
A|-------------------------------------------------|-------------4-------4-------------------2-------|
E|-------------------------------------------------|-----2-----------2-----------2---------------0---|

                                                                                                   X2
   E   E   E   E   E   E   E   E   E   E   E   E     E   E   E   E   E   E   E   E   E   E   E   E
E|-------------------------------------------------|-------------------------------------------------|
B|-------------------------------------------------|-------------------------------------------------|
G|-------------------------------------2-----------|-5-----------5-----------5-----------5-----------|
D|-0-------0---0-------0---4---0-----------0-------|-----2-----------2-----------2-----------2-------|
A|---------------------------------------------0---|---------3-----------3-----------3-----------3---|
E|-----2-----------2---------------2---------------|-------------------------------------------------|

                                                 X2  .
   E   E   E   E   E   E   E   E   E   E   E   E    W
E|-------------------------------------------------|--------------|
B|-------------------------------------------------|--------------|
G|-2-----------2-----------2-----------2-----------|--------------|
D|-------------------------------------------------|--------------|
A|-----4---0-------4---0-------4---0-------4---0---|--------------|
E|-------------------------------------------------|--------------|


1 comment on Kuja's Theme

Nice!

4

Love it! Shame there isn't the second guitarist tabs, But I guess I need to figure them out myself :)