Login or Register to remove this ad. | Advertise Here

Kingdom Of Burmecia (Final Fantasy IX) Guitar Tab

Submitted: Jun 26, 2010 by Daugreano

4.5
Average: 4.5 (2 votes)
Download | Listen
Game: Final Fantasy IX
Composer(s): Nobuo Uematsu
Style: Transcription
Series: Final Fantasy

AutoScroll: Slow | Medium | Fast
Song: Kingdom Of Burmecia
Game: Final Fantasy IX
Composer: Nobuo Uematsu
Tabbed by: Daugreano

Guitar:

                         2x                        2x                        2x                        2x
   E   E   E   E   E   E     E   E   E   E   E   E     E   E   E   E   E   E     E   E   E   E   E   E  
E|-5-------5-------5-------|-9---5---9---5---9---5---|-------------------------|-9-------9-------9-------|
B|-----7-------7-------7---|-------------------------|-9---5---9---5---9---5---|-----9-------9-------9---|
G|-------------------------|-------------------------|-------------------------|-------------------------|
D|-------------------------|-------------------------|-------------------------|-------------------------|
A|-------------------------|-------------------------|-------------------------|-------------------------|
E|-------------------------|-------------------------|-------------------------|-------------------------|

                         2x                        2x                        2x                        2x
   E   E   E   E   E   E     E   E   E   E   E   E     E   E   E   E   E   E     E   E   E   E   E   E  
E|-5-------5-------5-------|-10--5---10--5---10--5---|-7-------7-------7-------|-10--7---10--7---10--7---|
B|-----7-------7-------7---|-------------------------|-----7-------7-------7---|-------------------------|
G|-------------------------|-------------------------|-------------------------|-------------------------|
D|-------------------------|-------------------------|-------------------------|-------------------------|
A|-------------------------|-------------------------|-------------------------|-------------------------|
E|-------------------------|-------------------------|-------------------------|-------------------------|

                         2x                        2x                        2x                        2x
   E   E   E   E   E   E     E   E   E   E   E   E     E   E   E   E   E   E     E   E   E   E   E   E  
E|-5-------5-------5-------|-9---5---9---5---9---5---|-5-------5-------5-------|-9---5---9---5---9---5---|
B|-----7-------7-------7---|-------------------------|-----7-------7-------7---|-------------------------|
G|-------------------------|-------------------------|-------------------------|-------------------------|
D|-------------------------|-------------------------|-------------------------|-------------------------|
A|-------------------------|-------------------------|-------------------------|-------------------------|
E|-------------------------|-------------------------|-------------------------|-------------------------|

                         2x                        2x                        2x                        3x
   E   E   E   E   E   E     E   E   E   E   E   E     E   E   E   E   E   E     E   E   E   E   E   E  
E|-5-------5-------5-------|-9---5---9---5---9---5---|-5-------5-------5-------|-7-------7-------7-------|
B|-----5-------5-------5---|-------------------------|-----5-------5-------5---|-----9-------9-------9---|
G|-------------------------|-------------------------|-------------------------|-------------------------|
D|-------------------------|-------------------------|-------------------------|-------------------------|
A|-------------------------|-------------------------|-------------------------|-------------------------|
E|-------------------------|-------------------------|-------------------------|-------------------------|

                         2x                        2x                        2x                        2x
   E   E   E   E   E   E     E   E   E   E   E   E     E   E   E   E   E   E     E   E   E   E   E   E  
E|-------------------------|-9-------9-------9-------|-7-------7-------7-------|-12--7---12--7---12--7---|
B|-9---5---9---5---9---5---|-----9-------9-------9---|-----8-------8-------8---|-------------------------|
G|-------------------------|-------------------------|-------------------------|-------------------------|
D|-------------------------|-------------------------|-------------------------|-------------------------|
A|-------------------------|-------------------------|-------------------------|-------------------------|
E|-------------------------|-------------------------|-------------------------|-------------------------|

                         2x                        2x                        2x                        2x
   E   E   E   E   E   E     E   E   E   E   E   E     E   E   E   E   E   E     E   E   E   E   E   E  
E|-7-------7-------7-------|-11--7---11--7---11--7---|-7-------7-------7-------|-10--7---10--7---10--7---|
B|-----7-------7-------7---|-------------------------|-----7-------7-------7---|-------------------------|
G|-------------------------|-------------------------|-------------------------|-------------------------|
D|-------------------------|-------------------------|-------------------------|-------------------------|
A|-------------------------|-------------------------|-------------------------|-------------------------|
E|-------------------------|-------------------------|-------------------------|-------------------------|


Then repeat...