Login or Register to remove this ad. | Advertise Here

Heaven Distress (Final Fantasy IX) Guitar Tab

Submitted: Jun 25, 2010 by Daugreano

0
Download | Listen
Game: Final Fantasy IX
Composer(s): Nobuo Uematsu
Style: Transcription
Series: Final Fantasy

AutoScroll: Slow | Medium | Fast
Song: Heaven Distress
Game: Final Fantasy IX
Composer: Nobuo Uematsu
Tabbed By: Daugreano


Guitar:
 
   Q    Q    Q      Q    Q    Q      Q    Q    Q      H  Q     H  Q     H  Q     Q    Q    Q     
E|----------------|----------------|----------------|--------|--------|--------|-0----2----3----|
B|----------------|-1----0---------|----------------|-3--L---|-L--L---|-L--L---|----------------|
G|-2----1----2----|-----------2----|-1---------1----|--------|--------|--------|----------------|
D|----------------|----------------|------3---------|--------|--------|--------|----------------|
A|----------------|----------------|----------------|--------|--------|--------|----------------|
E|----------------|----------------|----------------|--------|--------|--------|----------------|

   H  Q     H  Q     H  Q     H  Q     H  Q     Q    Q    Q      H  Q     H  Q
E|--------|--------|--------|--------|--------|-0----2----3----|--------|-0--L---|
B|-3--L---|-2--L---|--------|--------|--------|----------------|-3--L---|--------|
G|--------|--------|-2--L---|-1--L---|-2--L---|----------------|--------|--------|
D|--------|--------|--------|--------|--------|----------------|--------|--------|
A|--------|--------|--------|--------|--------|----------------|--------|--------|
E|--------|--------|--------|--------|--------|----------------|--------|--------|

   H  Q     H  Q     Q    Q    Q      Q    Q    Q      Q    Q    Q      H  Q     H  Q
E|-1--L---|-L--L---|----------------|----------------|----------------|--------|--------|
B|--------|--------|----------------|-1----0---------|----------------|-3--L---|-L--L---|
G|--------|--------|-2----1----2----|-----------2----|-1---------1----|--------|--------|
D|--------|--------|----------------|----------------|------3---------|--------|--------|
A|--------|--------|----------------|----------------|----------------|--------|--------|
E|--------|--------|----------------|----------------|----------------|--------|--------|

   H  Q     Q    Q    Q      Q    Q    Q      H  Q     H  Q     Q    Q    Q      Q    Q    Q
E|--------|----------------|-3----1---------|-0--L---|-L--L---|----------------|-0--------------|
B|-L--L---|-0---------0----|-----------4----|--------|--------|-1----0----1----|------3---------|
G|--------|------3---------|----------------|--------|--------|----------------|-----------2----|
D|--------|----------------|----------------|--------|--------|----------------|----------------|
A|--------|----------------|----------------|--------|--------|----------------|----------------|
E|--------|----------------|----------------|--------|--------|----------------|----------------|

   Q    Q    Q      H  Q     H  Q
E|----------------|--------|--------|
B|-1----0---------|--------|--------|
G|----------------|-2--L---|-1--L---|
D|-----------4----|--------|--------|
A|----------------|--------|--------|
E|----------------|--------|--------|

Then Repeat...