Login or Register to remove this ad. | Advertise Here

Game Over (Final Fantasy IX) Guitar Tab

Submitted: May 04, 2009 by TheDoomOfAllFires (Last updated: Feb 03, 2010)

5
Average: 5 (3 votes)
Download | Listen
Game: Final Fantasy IX
Composer(s): Nobuo Uematsu
Style: Alternate picking, Arrangement, Fingerstyle
Series: Final Fantasy

AutoScroll: Slow | Medium | Fast
Final Fantasy IX - Game Over
Arranged by TheDoomOfAllFires; 05/04/2009

Standard tuning


Hope you like it ! ^^



     ^                   ^                 ^                 ^                  
     Q    E  E  E  E     Q    Q    Q       Q    Q    Q       Q    E  E  E   E   
E||----------------0--|--2----0---------|-----------------|--------------------|
B||--1-------0--1-----|--3---------3----|------------1----|--0-------0---------|
G||-------2-----------|-----------------|--0----2---------|--0----------2p--0--|
D||--2----2-----------|--0---------0----|-------0---------|--------------------|
A||--0----------0-----|-----------------|--2--------------|-------2------------|
E||-------------------|-----------------|--3--------------|--3-----------------|


  ^                   ^                 ^                 ^                
  Q    E  E  E  E     Q    Q    Q       Q    Q    Q       Q.     E  E  E   
----------------0--|--2--------------|-------7----5----|--3------3--2--3--|
--1-------0--1-----|--3----3----1----|--0----8----7----|--0---------------|
-------2-----------|-------2---------|--0--------------|------------------|
--2----2-----------|--0--------------|-----------------|------------------|
--0----------0-----|-----------------|-----------------|------------------|
-------------------|-----------------|--0--------------|--0---------------|


  Q    E  E  E  E     Q    Q    Q       Q    E  E  E  E      Q    Q    Q     
--5----2--3--5--7--|--8----7----5----|--7-------5--7--9--|--10----9----7----|
-------3--------7--|------------7----|-------8-----8-----|--------9---------|
-------------------|-----------------|-------------------|------------------|
--0----------0-----|-----------------|-------------------|------------------|
-------------------|--6--------------|--7----------------|---8--------------|
-------------------|-----------------|-------------------|------------------|


  E   E   E   E   Q        Q    E  E  E   E     Q     Q     E.  T  T  
--9------14------12----|--10----9--7--9--10--|--9----10----12---7p-6-|
-----------------------|---7----7--7---------|-------------11--------|
-----11------11--------|---------------------|-------------11--------|
-----------------------|---------------------|-----------------------|
--9--------------------|---------------------|--9--------------------|
-----------------------|---7-----------------|-----------------------|


  H.                S S S S S S S S S S S S S S S S  
--7------------||-------------------7---------------|
---------------||-----------0-----7---7-----0-------|
---------------||*------------6-8-------8-6---------|
---------------||*------1-4-------------------4-1---|
---------------||---2-4---------------------------4-|
--7------------||-----------------------------------|


  S S S S S S S S S S S S S S S S  3x  S S S S S S S S S S S S S S S S  
------------------4----------------||------------------7---------------|
--------------0-4---4-0------------||----------0-----7---7-----0-------|
----------1-3-----------3-1-------*||------------6-8-------8-6---------|
--------1-------------------1-----*||------1-4-------------------4-1---|
----1-2-----------------------2-1--||--2-4---------------------------4-|
--4--------------------------------||----------------------------------|


  S S S S S S S S S S S S S S S S   
------------------4---------------||
--------------0-4---4-0-----------||
----------1-3-----------3-1-------||
--------1-------------------1-----||
----1-2-----------------------2-1-||
--4-------------------------------||




Duration Legend
---------------
W - whole
H - half
Q - quarter
E - 8th
S - 16th
T - 32nd
X - 64th
. - note dotted
|-n-|  - n-tuplets


Tablature Legend
----------------
L - tied note
x - dead note
g - grace note
(n) - ghost note
> - accentuded note
NH - natural harmonic
AH - artificial harmonic
TH - tapped harmonic
SH - semi harmonic
PH - pitch harmonic
h - hammer on
p - pull off
b - bend
br - bendRelease
pb - preBend
pbr - preBendRelease
brb - bendReleaseBend
\n/ - tremolo bar dip
\n - tremolo bar dive
-/n - tremolo bar Release up
/n\ - tremolo bar inverted dip
/n - tremolo bar return
-\n - tremolo bar Release down
S - shift slide
s - legato slide
/ -  slide into from below or out of upwards
\ -  slide into from above or out of downwards
~ - vibrato
W - wide vibrato
tr - trill
TP - tremolo picking
T - tapping
S - slap
P - pop
< - fade in
^ - brush up
v - brush down

3 comments on Game Over

O_o

Excellent

thansk you very much!

thank you very much!

Nice!

5

Nice!