Login or Register to remove this ad. | Advertise Here

Frontier Village Dali (Final Fantasy IX) Guitar Tab

Submitted: Sep 07, 2010 by Daugreano

5
Average: 5 (1 vote)
Download | Listen
Game: Final Fantasy IX
Composer(s): Nobuo Uematsu
Style: Arrangement, Fingerstyle
Series: Final Fantasy

AutoScroll: Slow | Medium | Fast
Song: Frontier Village Dali
Game: Final Fantasy IX
Composer: Nobuo Uematsu
Tabbed by: Daugreano


Guitar: 

   E   E   E   Q    E   E   E     E   E   E   Q    E   E   E     E   E   E   Q    E   E   E
E|-0----------------0-----------|-1----------------1-----------|-2----------------2-----------|
B|-----3-------3--------3-------|-----3-------3--------3-------|-----3-------3--------3-------|
G|---------0----------------0---|---------2----------------2---|---------2----------------2---|
D|------------------------------|------------------------------|------------------------------|
A|-3----------------------------|-3----------------------------|-3----------------------------|
E|------------------------------|------------------------------|------------------------------|

   E   E   E   Q    E   E   E     Q    E   E   Q.    E     Q    E   Q    E   E   E
E|-1----------------1-----------|------0---1---3-----0---|-5----3------------0-------|
B|-----1-------1--------1-------|------1-----------------|-0--------3----3-------3---|
G|---------2----------------2---|------------------------|---------------------------|
D|------------------------------|------------------------|---------------------------|
A|-3----------------------------|------------------------|---------------------------|
E|------------------------------|------------------------|---------------------------|

   Q    E   E   Q    Q      Q    Q.    E   E   E     Q    E   E   Q    Q      W 
E|--------------0----8----|-7----5-----5---7---5---|-3----0---1---3----10---|-3------|
B|-1----1---3-------------|-X----------------------|-1----------------------|-0------|
G|-2------------0---------|-X----------------------|------------------------|--------|
D|------------------------|-X----------------------|------------------------|--------|
A|------------------------|-7----------------------|------------------------|--------|
E|------------------------|------------------------|------------------------|--------|

   Q    E   E   Q    Q      H.     Q      Q    E   E   Q    Q      E   E   E   E   Q    Q
E|-3----0---1---3----12---|-5------3----|-3----0---1---3----8----|-8---4---3---1-------------|
B|-X----------------------|-5-----------|-3----------------------|-X---------------1----3----|
G|-3----------------------|-2-----------|------------------------|-X-------------------------|
D|------------------------|-------------|------------------------|-8-------------------------|
A|------------------------|-------------|------------------------|---------------------------|
E|------------------------|-------------|------------------------|---------------------------|

   H     E   E   E   E     Q    H.       H     Q    Q      Q    E   E   Q.    E
E|-0---------0---1---0---|-------------|-8-----6----4----|------0---1---3-----0---|
B|-1---------------------|------3------|-6-----8----6----|------------------------|
G|-----------------------|-1-----------|-----------------|------------------------|
D|-----------------------|-------------|-----------------|------------------------|
A|-----------------------|-------------|-----------------|------------------------|
E|-----------------------|-------------|-----------------|------------------------|

   Q    E   Q    E   E   E     Q    E   E   Q    Q      Q    Q.    E   E   E     Q    E   E   Q    Q
E|-5----3------------0-------|--------------0----8----|-7----5-----5---7---5---|-3----0---1---3----10---|
B|----------3----3-------3---|-1----1---3-------------|------------------------|------------------------|
G|---------------------------|------------------------|------------------------|------------------------|
D|---------------------------|------------------------|------------------------|------------------------|
A|---------------------------|------------------------|------------------------|------------------------|
E|---------------------------|------------------------|------------------------|------------------------|

   W        Q    E   E   Q    Q      H.     Q      Q    E   E   Q    Q      E   E   E   E   Q    Q
E|-3------|-3----0---1---3----12---|-5------3----|-3----0---1---3----8----|-8---4---3---1-------------|
B|--------|------------------------|-------------|------------------------|-----------------1----3----|
G|--------|------------------------|-------------|------------------------|---------------------------|
D|--------|------------------------|-------------|------------------------|---------------------------|
A|--------|------------------------|-------------|------------------------|---------------------------|
E|--------|------------------------|-------------|------------------------|---------------------------|

   H     E   E   E   E     W        Q.    E   Q    Q      W        Q    E   E   Q    E   E 
E|-0---------0---1---0---|-0------|-----------0----7----|-3------|--------------0----7---5---|
B|-----------------------|--------|-1-----3-------------|--------|------1---3----------------|
G|-----------------------|--------|---------------------|--------|---------------------------|
D|-----------------------|--------|---------------------|--------|---------------------------|
A|-----------------------|--------|---------------------|--------|---------------------------|
E|-----------------------|--------|---------------------|--------|---------------------------|

   H     E   E   E   E     Q    Q    Q    Q      H     E   E   E   E     H     E   E   E   E
E|-8---------5---7---8---|-8----5----1----0----|-----------2---7---5---|-3---------0---2---3---|
B|-----------------------|---------------------|-4-----4---------------|-----------------------|
G|-----------------------|---------------------|-----------------------|-----------------------|
D|-----------------------|---------------------|-----------------------|-----------------------|
A|-----------------------|---------------------|-----------------------|-----------------------|
E|-----------------------|---------------------|-----------------------|-----------------------|

   H     H       H     E   E   E   E     H     H       W    
E|-1-----------|-------1---------------|-------------|--------|
B|-------3-----|-4---------4---3---1---|-3-----0-----|-1------|
G|-------------|-----------------------|-------------|--------|
D|-------------|-----------------------|-------------|--------|
A|-------------|-----------------------|-------------|--------|
E|-------------|-----------------------|-------------|--------|

Then repeat...