Login or Register to remove this ad. | Advertise Here

Freya's Theme (Final Fantasy IX) Guitar Tab

Submitted: Sep 07, 2009 by TheDoomOfAllFires (Last updated: Feb 06, 2010)

4.75
Average: 4.8 (4 votes)
Download | Listen
Game: Final Fantasy IX
Composer(s): Nobuo Uematsu
Style: 2 or more instruments, Arrangement, Fingerstyle
Series: Final Fantasy

AutoScroll: Slow | Medium | Fast
Final Fantasy IX - Freya's Theme
Arranged by TheDoomOfAllFires; 09/07/2009
Special thanks to Auri.

BPM=110
Guitar #1 : Drop-D tuning / Capo. 5
Guitar #2 : Standard tuning / Capo. 5




Hope you like it ! ^^



Guitar #1 :

     E  S S E  E  S S E     E  S S E  E  S S E     E  S S E  E  S S E   
E||--0------0-----0------|--0------0-----0------|--0------0-----0------|
B||-----1------1------1--|-----1------1------1--|-----1------1------1--|
G||----------------------|----------------------|----------------------|
D||-------2---------2----|-------2---------2----|-------2---------2----|
A||--0---------0---------|--0---------0---------|--0---------0---------|
D||----------------------|----------------------|----------------------|


  E  S S E  E  S S E       E  S S E  E  S S  E     E  S S E  E  S S E   
--0------0-----0------||-------------0----------|----------------------|
-----1------1------1--||---1----0---------3p-1--|--0-------------------|
----------------------||*---------2-------------|---------2-----2------|
-------2---------2----||*-----2---------2-------|-----2-------------2--|
--0---------0---------||---0---------0----------|--0----3----0----3----|
----------------------||------------------------|----------------------|


  E  S S E  E  S S E     E  S S E  E  S S E     E  S S E  E  S S  E   
----------------------|----------------------|--3----2----7----5p-3--|
----------------------|----------------------|---------5-------------|
---------2-----2------|---------2-----2------|-----------------------|
-----2-------------2--|-----2-------------2--|-----2---------2-------|
--0----3----0----3----|--0----3----0----3----|-----------------------|
----------------------|----------------------|--2---------2----------|


  E  S S E  E  S S E     E  S S E  E  S S E     E  S S E  E  S S E   
--2------0-----0------|---------0-----0------|---------0-----0------|
-------------------0--|-------------------0--|-------------------0--|
-----0-----------0----|-----0-----------0----|-----0-----------0----|
----------------------|-------2--------------|-------2--------------|
-------2--------------|----------------------|----------------------|
--2---------2---------|--2---------2---------|--2---------2---------|


  E  S S  E  E  S S  E     E  S S E  E  S S E     E  S S E  E  S S E   
--0----------3----1p-0--|----------------------|----------------------|
-------3p-1-------------|--3-------------------|----------------------|
------------------------|---------5-----5------|---------5-----5------|
------------------------|-------3-----------3--|-------3-----------3--|
-----3----------3-------|-----3-----------3----|-----3-----------3----|
--3----------3----------|--3---------3---------|--3---------3---------|


  E  S S E  E  S S E     E  S S E  E  S S  E     E  S S E  E  S S  E   
----------------------|------------0----------|-----------------------|
----------------------|--1----0---------3p-1--|--0--------------------|
---------5-----5------|---------2-------------|---------2-----2-------|
-------3-----------3--|-----------------------|-----0-----------0h-3--|
-----3-----------3----|-----0---------0-------|-------0---------------|
--3---------3---------|--0---------0----------|--0---------0----------|


                                                    ^          NH    
  E  S S E  E  S S  E     E  S S E  E  S S  E       H          Q     
-----------------------|------------------------||------------------|
-----------------------|------------------------||--1---------------|
---------2-----2-------|---------2-----2-------*||--2---------------|
-----0-----------0h-3--|-----0-----------0h-3--*||--2--------<>7----|
-------0---------------|-------0----------------||--0---------------|
--0---------0----------|--0---------0-----------||------------------|


  H.             
---------------||
---------------||
---------------||
--L------------||
---------------||
---------------||

_________________
_________________


Guitar #2:

                     E  S S E  E  S S E     E  S S E  E  S S E   
E||-------|-------|--5------5-----5------|--5------5-----5------|
B||-------|-------|-----5-------------5--|-----5-------------5--|
G||-------|-------|-------5----2----5----|-------5----2----5----|
D||-------|-------|----------------------|----------------------|
A||-------|-------|--0---------0---------|--0---------0---------|
E||-------|-------|----------------------|----------------------|


    E  S S E  E  S S E     E  S S E  E  S S E     E  S S E  E  S S E   
|---5------5-----5------|--5------5-----5------|--5------5-----5------|
|------5-------------5--|-----5-------------5--|-----5-------------5--|
|*-------5----2----5----|-------5----2----5----|-------5----2----5----|
|*----------------------|----------------------|----------------------|
|---0---------0---------|--0---------0---------|--0---------0---------|
|-----------------------|----------------------|----------------------|


  E  S S E  E  S S E     E  S S E  E  S S E     E  S S E  E  S S E   
--5------5-----5------|--7------7-----7------|--7------7-----7------|
-----5-------------5--|-----5------5------8--|-----5------5------8--|
-------5----2----5----|-------4---------4----|-------4---------4----|
----------------------|----------------------|----------------------|
--0---------0---------|----------------------|----------------------|
----------------------|--0---------0---------|--0---------0---------|


  E  S S E  E  S S E     E  S S E  E  S S E     E  S S E  E  S S E   
--7------7-----7------|--7------7-----7------|--5------5-----5------|
-----5------5------8--|-----5------5------8--|-----1-------------1--|
-------4---------4----|-------4---------4----|-------2----5----2----|
----------------------|----------------------|--3-------------------|
----------------------|----------------------|----------------------|
--0---------0---------|--0---------0---------|----------------------|


  E  S S E  E  S S E     E  S S E  E  S S E     E  S S E  E  S S E   
--5------5-----5------|--5------5-----5------|--5------5-----5------|
-----1-------------1--|-----1-------------1--|-----1-------------1--|
-------2----5----2----|-------2----5----2----|-------2----5----2----|
--3-------------------|--3-------------------|--3-------------------|
----------------------|----------------------|----------------------|
----------------------|----------------------|----------------------|


  E  S S E  E  S S E     E  S S E  E  S S E     E  S S E  E  S S E   
--5------5-----5------|--5------5-----5------|--5------5-----5------|
-----3-------------3--|-----3-------------3--|-----3-------------3--|
-------2---------2----|-------2---------2----|-------2---------2----|
--0---------0---------|--0---------0---------|--0---------0---------|
----------------------|----------------------|----------------------|
----------------------|----------------------|----------------------|


  E  S S E  E  S S E                      
--5------5-----5-------||-------|-------||
-----3-------------3---||-------|-------||
-------2---------2----*||-------|-------||
--0---------0---------*||-------|-------||
-----------------------||-------|-------||
-----------------------||-------|-------||




Duration Legend
---------------
W - whole
H - half
Q - quarter
E - 8th
S - 16th
T - 32nd
X - 64th
. - note dotted
|-n-|  - n-tuplets


Tablature Legend
----------------
L - tied note
x - dead note
g - grace note
(n) - ghost note
> - accentuded note
NH - natural harmonic
AH - artificial harmonic
TH - tapped harmonic
SH - semi harmonic
PH - pitch harmonic
h - hammer on
p - pull off
b - bend
br - bendRelease
pb - preBend
pbr - preBendRelease
brb - bendReleaseBend
\n/ - tremolo bar dip
\n - tremolo bar dive
-/n - tremolo bar Release up
/n\ - tremolo bar inverted dip
/n - tremolo bar return
-\n - tremolo bar Release down
S - shift slide
s - legato slide
/ -  slide into from below or out of upwards
\ -  slide into from above or out of downwards
~ - vibrato
W - wide vibrato
tr - trill
TP - tremolo picking
T - tapping
S - slap
P - pop
< - fade in
^ - brush up
v - brush down

1 comment on Freya's Theme

Nice! You finally finished

5

Nice! You finally finished it! I've been waiting for this since I saw the WIP thread :). I was almost disappointed when I saw it was for a duet, since I am a friendless loser lol. However, I noticed the first guitar is the same as the WIP version and I think it's sufficient on its own for solo play! The extra guitar is just icing on the cake :).

Great job, Doom!