Login or Register to remove this ad. | Advertise Here

Extraction (Final Fantasy IX) Guitar Tab

Submitted: May 31, 2010 by Daugreano

0
Download | Listen
Game: Final Fantasy IX
Composer(s): Nobuo Uematsu
Style: Alternate picking, Transcription
Series: Final Fantasy

AutoScroll: Slow | Medium | Fast
Title: Privation Of Summons (Extraction)
Game: Final Fantasy IX
Composer: Nobuo Uematsu
Tabbed by: Daugreano


Guitar:

                                      .              
   E   E   E   E   E   E   E   E     H    Q        E   E   E   E   E   E   E   E
E|---------------------------------|-------------|---------------------------------|
B|---------------------3---4---9---|-8-----------|---------------------1---2---7---|
G|-0-----------1---0---------------|-------------|---------------------------------|
D|-----0---1-----------------------|-------------|-3-----------4---3---------------|
A|---------------------------------|-------------|-----3---4-----------------------|
E|---------------------------------|-------------|---------------------------------|
    .                                               .
   H    Q        E   E   E   E   E   E   E   E     H    Q        E   E   E   E   E   E   E   E
E|-------------|---------------------------------|-------------|---------------------------------|
B|-6-----------|---------------------3---4---9---|-8-----------|---------------------1---2---7---|
G|-------------|-0-----------1---0---------------|-------------|---------------------------------|
D|-------------|-----0---1-----------------------|-------------|-3-----------4---3---------------|
A|-------------|---------------------------------|-------------|-----3---4-----------------------|
E|-------------|---------------------------------|-------------|---------------------------------|
    .
   H    Q       W
E|-------------|--------|
B|-6-----------|--------|
G|-------------|--------|
D|-------------|--------|
A|-------------|--------|
E|-------------|--------|