Login or Register to remove this ad. | Advertise Here

Doga and Une (Final Fantasy IX) Guitar Tab

Submitted: Aug 26, 2009 by auriplane (Last updated: Feb 06, 2010)

5
Average: 5 (4 votes)
Download | Listen
Game: Final Fantasy IX
Composer(s): Nobuo Uematsu
Style: Arrangement, Fingerstyle
Series: Final Fantasy

AutoScroll: Slow | Medium | Fast
                   Final Fantasy 9 - Doga and Une GUITAR TAB
                             Song by Nobuo Uematsu

               Arranged & tabbed by auriplane (crystal@panix.com)


This song is originally from Final Fantasy 3, but this is based on the version
in FF9.  I'm not sure how different they are @_@;

In parts A and B, play each group of six notes gradually getting quieter, so
the last five notes sound like echoes of the first.  Parts A and D are the same
notes, btw.

Drop D tuning, no capo.  3/4 time



    Part A


   Q     Q     Q      Q     Q     Q      Q     Q     Q      Q     Q     Q
e |1-----1-----1-----|1-----1-----1-----|0-----0-----0-----|0-----0-----0-----|
B |3-----3-----3-----|3-----3-----3-----|1-----1-----1-----|1-----1-----1-----|
G |------------------|------------------|------------------|------------------|
D |------------------|------------------|------------------|------------------|
A |------------------|------------------|------------------|------------------|
D |------------------|------------------|------------------|------------------|


   Q     Q     Q      Q     Q     Q      Q     Q     Q      Q     Q     Q
e |3-----3-----3-----|3-----3-----3-----|------------------|------------------|
B |5-----5-----5-----|5-----5-----5-----|3-----3-----3-----|3-----3-----3-----|
G |------------------|------------------|3-----3-----3-----|3-----3-----3-----|
D |------------------|------------------|------------------|------------------|
A |------------------|------------------|------------------|------------------|
D |------------------|------------------|------------------|------------------|


    Part B       - Play this part twice -


   E  E  E  E  E  E   E  E  E  E  E  E   E  E  E  E  E  E   E  E  E  E  E  E
e |------------------|------------------|0-----------0--1--|3--1--0--1--3--5--|
B |---------------0--|1--0-----0--1--3--|---3--1--3--------|3-----------------|
G |2--0-----0--2-----|------2-----------|2-----------------|------------------|
D |0-----3-----------|3-----------------|------------------|------------------|
A |------0-----------|------------------|------------------|------------------|
D |0-----------------|------------------|3-----3-----------|------------------|


   E  E  E  E  E  E   E  E  E  E  E  E   E  E  E  E  E  E   E  E  E  E  E  E
e |7--------8--7-----|0--------1--0-----|------------------|------------------|
B |---8-----------8--|---3--1--------1--|0--------1--0-----|------------------|
G |------9-----------|0-----------------|---0--0--------0--|------------------|
D |-----10-----------|------------------|2-----2-----------|2--0-----3--2-----|
A |7-----------------|------------------|3-----------------|------3--------3--|
D |------------------|------------------|------------------|2-----------------|


    Part C


   E  E  E  E  E  E   H.                 E  E  E  E  E  E   Q.       E  E  E
e |------------------|------------------|------------------|------------0--1--|
B |3--1-----------1--|3-----------------|------------------|---------3--------|
G |------3--2--3-----|------------------|2--0-----------0--|2-----------------|
D |------3-----3-----|------------------|------3--2--3-----|------------------|
A |1-----------------|1-----------------|1-----5-----5-----|1-----------------|
D |------------------|------------------|------------------|------------------|


   E  E  E  E  E  E   H.                 E  E  E  E  E  E   Q.       E  E  E
e |3--1--0-----0--1--|3-----------------|------------------|---------0--1--3--|
B |---------3--------|------------------|1-----------------|1-----------------|
G |------------0-----|3-----------------|---3--2--0--2--3--|---------0--2--3--|
D |------0-----------|------------------|------5-----5-----|2-----------------|
A |------------------|------------------|3-----------------|------------------|
D |5-----------------|------------------|------------------|------------------|


   E  E  E  E  E  E   Q     Q     Q      E  E  E  E  E  E   H.
e |1--0-----------0--|3-----------------|6--5--3--1--0--1--|3-----------------|
B |------3--1--3-----|0-----3-----3-----|------------------|------------------|
G |2--0-----------0--|------0-----0-----|7--5--3--2--0--2--|3-----------------|
D |------3--2--3-----|------------5-----|------3-----3-----|------------------|
A |------3-----3-----|------5-----------|------------------|3-----------------|
D |3-----------------|5-----------------|8-----------------|------------------|


    Part D


   Q     Q     Q      Q     Q     Q      Q     Q     Q      Q     Q     Q
e |1-----1-----1-----|1-----1-----1-----|0-----0-----0-----|0-----0-----0-----|
B |3-----3-----3-----|3-----3-----3-----|1-----1-----1-----|1-----1-----1-----|
G |------------------|------------------|------------------|------------------|
D |------------------|------------------|------------------|------------------|
A |------------------|------------------|------------------|------------------|
D |------------------|------------------|------------------|------------------|


   Q     Q     Q      Q     Q     Q      Q     Q     Q      Q     Q     Q
e |3-----3-----3-----|3-----3-----3-----|------------------|------------------|
B |5-----5-----5-----|5-----5-----5-----|3-----3-----3-----|3-----3-----3-----|
G |------------------|------------------|3-----3-----3-----|3-----3-----3-----|
D |------------------|------------------|------------------|------------------|
A |------------------|------------------|------------------|------------------|
D |------------------|------------------|------------------|------------------|

4 comments on Doga and Une

*melts*

5

*melts*

oww, this one makes me feel

oww, this one makes me feel nostalgic! gj ^^

First heard this tune on the

5

First heard this tune on the DS version of FF3, and I love it! :D

HellYea! Like it :)

5

HellYea! Like it :)