Login or Register to remove this ad. | Advertise Here

Conde Petie (Final Fantasy IX) Guitar Tab

Submitted: Apr 20, 2010 by Lukah

5
Average: 5 (2 votes)
Download | Listen
Game: Final Fantasy IX
Composer(s): Nobuo Uematsu
Style: Arrangement, Fingerstyle
Series: Final Fantasy

This song is also called Mountain Pass

AutoScroll: Slow | Medium | Fast
Mountain Pass ~ Conde Petie                                   
Final Fantasy IX

Composed by Nobuo Uematsu
Arranged by Lukah Dykes
                                                                   
Standard tuning (EAdgbe) [Capo 1]
Moderately Slow - 82 BPM 

                                                        cII...................
     Q    E  E  Q    E  E     Q    E  E  Q    Q     %   Q    E  E  Q    E  E   
E||------------------------|-----------------------||-------------------------|
B||------------------------|-----------------------||--------2--2--2----------|
G||------------------------|-----------------------||*-------2--2--2----2-----|
D||------------------------|-----------------------||*--4----4--4--4----4--4--|
A||--5----5--5--5----5--5--|--5----5--5--5---------||---4---------------4--4--|
E||------------------------|-----------------------||---5------------------5--|
                                                             1 
                                                        3    1
     2                                                  2    3
                                                        4

                          cII...........   cII..........................
  Q    E  E  Q    Q       Q    E  E  E  E  E  E     H        Q    Q     
-----------------------|-------------------------|---------------------|
-------0--0--0---------|-------2--2--2--0--2--3--|---------------------|
-------0--0--0---------|-------2--2--2--0--2--4--|--2--------L----L----|
--0----0--0--0---------|--4----4--4--4-----2-----|--3--------L----L----|
--2--------------------|--4----------------------|--5--------4----2----|
--3--------------------|--5----------------------|---------------------|
                               1           1  2     1        
                          3    1           1  3     2
  1                       2    3           1        4        3    1 
  2                       4                                     

........................                           cII..............
  Q    E  E  Q    E  E     Q    E  E  Q    Q       E  E  E  E  Q    Q     
------------------------|-----------------------|------------------------|
-------2--2--2----------|-------0--0--0---------|--------2---------------|
-------2--2--2----2-----|-------0--0--0---------|-----2-----4--2---------|
--4----4--4--4----4--4--|--0----0--0--0---------|--4-----3--L--4---------|
--4---------------4--4--|--2--------------------|--4--L--4--L--4---------|
--5------------------5--|--3--------------------|--5--L------------------|
       1                                              1  1     
  3    1                                           3        4  1
  2    3                   1                       2     2     4
  4                        2                       4     3     3

  cIII.................................          cII......
  E  E  E  E  H           H.           Q         E  E  E  E  Q    Q     
-----------------------|---------------------||------------------------|
--------3--------------|---------------------||--2-----2--3--5---------|
-----4-----6--4--------|--L-----------------*||-----4--2-----4---------|
--5-----4--L--3--------|--L-----------------*||--5-----5-----5---------|
--5-----5--L--5--------|--L------------------||--7---------------------|
--7--L-----------------|---------------------||------------------------|
     2  1                                        1     1  1  4
  3        4  2                                     2  1     2 
  2     2     1                                  3     3     3
  4     3     3                                  4         
                                                 
  cIII........cIV......................
  E  E  E  E  H           H.           Q     
-----------------------|--------------------|
--5--3--5--7--8--------|--L-----------------|
--3--------L--4--------|--L-----------------|
--4--------L--5--------|--L-----------------|
-----------------------|--------------------|
-----------------------|--------------------|
  3  1  3  4  4
  1           1
  2           2
  

  |----6----| |----6----| |----6----| |----6----| 
  S S S S S S S S S S S S S S S S S S S S S S S S  
--2-----------------------0-----------------------|
--------------------------------------3-----------|
--------------------------------------------------|
--4-----4-----4-----4-----4-----4-----4-----4-----|
----5-----5-----5-----5-----5-----5-----5-----5---|
------7-----7-----7-----7-----7-----7-----7-----7-|
  1                                   1
  2
    3
      4
  cIV.............................................
  |----6----| |----6----| |----6----| |----6----| 
  S S S S S S S S S S S S S S S S S S S S S S S S  
--------------------------------------------------|
--------------------------------------------------|
--6-----------------------4-----------6-----------|
--4-----4-----4-----4-----4-----4-----4-----4-----|
----4-----4-----4-----4-----4-----4-----4-----4---|
------6-----6-----6-----6-----6-----6-----6-----6-|
  4                       1           4
  1 
    1
      3
                                      cII..........
  |----6----| |----6----| |----6----| |----6----| 
  S S S S S S S S S S S S S S S S S S S S S S S S  
--0-----------------------------------------------|
--------------------------3-----------2-----------|
--------------------------------------------------|
--2-----2-----2-----2-----2-----2-----2-----2-----|
----4-----4-----4-----4-----4-----4-----4-----4---|
------5-----5-----5-----5-----5-----5-----5-----5-|
                          2           1
  1                                   1
    3
      4
...................................................
  |----6----| |----6----| |----6----| |----6----| 
  S S S S S S S S S S S S S S S S S S S S S S S S  
--------------------------------------------------|
--------------------------------------------------|
--4-----------------------------------------------|
--2-----2-----2-----2-----2-----2-----2-----2-----|
----2-----2-----2-----2-----2-----2-----2-----2---|
------4-----4-----4-----4-----4-----4-----4-----4-|
  4
  1
    1
      3
...................................................
  |----6----| |----6----| |----6----| |----6----| 
  S S S S S S S S S S S S S S S S S S S S S S S S  
--------------------------------------------------|
--------------------------------------------------|
--L-----------------------------------------------|
--2-----2-----2-----2-----2-----2-----2-----2-----|
----2-----2-----2-----2-----2-----2-----2-----2---|
------4-----4-----4-----4-----4-----4-----4-----4-|




...................................................
  |----6----| |----6----| |----6----| |----6----| 
  S S S S S S S S S S S S S S S S S S S S S S S S  
--------------------------------------------------|
--------------------------2-----------3-----------|
--4-----------------------------------------------|
--2-----2-----2-----2-----2-----2-----2-----2-----|
----2-----2-----2-----2-----2-----2-----2-----2---|
------3-----3-----3-----3-----3-----3-----3-----3-|
                          1           3

                          1
      2          
         
  |----6----| |----6----| |----6----| |----6----| 
  S S S S S S S S S S S S S S S S S S S S S S S S  
--3-----------0-----------6-----------3-----------|
--------------------------------------------------|
--------------------------------------------------|
--2-----2-----2-----2-----2-----2-----2-----2-----|
----1-----1-----1-----1-----1-----1-----1-----1---|
------3-----3-----3-----3-----3-----3-----3-----3-|
  4                       4           4
  2 
    1
      3

  |----6----| |----6----| |----6----| |----6----| 
  S S S S S S S S S S S S S S S S S S S S S S S S  
--------------------------------------------------|
--7-----------------------------------------------|
--------------------------9-----------7-----------|
--4-----4-----4-----4-----4-----4-----4-----4-----|
----5-----5-----5-----5-----5-----5-----5-----5---|
------7-----7-----7-----7-----7-----7-----7-----7-|
  4                       4           4 
  1 
    2 
      3 
  cIV..............................................
  |----6----| |----6----| |----6----| |----6----| 
  S S S S S S S S S S S S S S S S S S S S S S S S  
--------------------------------------------------|
--------------------------------------------------|
--6-----------------------------------------------|
--4-----4-----4-----4-----4-----4-----4-----4-----|
----4-----4-----4-----4-----4-----4-----4-----4---|
------5-----5-----5-----5-----5-----5-----5-----5-|
  4
  1
    1
      2
..................................................
  |----6----| |----6----| |----6----| |----6----| 
  S S S S S S S S S S S S S S S S S S S S S S S S  
--------------------------------------------------|
--------------------------------------------------|
--L-----------------------------------------------|
--4-----4-----4-----4-----4-----4-----4-----4-----|
----4-----4-----4-----4-----4-----4-----4-----4---|
------5-----5-----5-----5-----5-----5-----5-----5-|



  cII.............................................
  |----6----| |----6----| |----6----| |----6----|  
  S S S S S S S S S S S S S S S S S S S S S S S S  
--------------------------------------------------|
--------------------------2-----------3-----------|
--4-----------------------------------------------|
--2-----2-----2-----2-----2-----2-----2-----2-----|
----2-----2-----2-----2-----2-----2-----2-----2---|
------3-----3-----3-----3-----3-----3-----3-----3-|
  4                       1           3 
  1
    1
      2
  cI...............................................
  |----6----| |----6----| |----6----| |----6----| 
  S S S S S S S S S S S S S S S S S S S S S S S S  
--------------------------------------------------|
--------------------------------------------------|
--3-----------------------------------------------|
--1-----1-----1-----1-----1-----1-----1-----1-----|
----1-----1-----1-----1-----1-----1-----1-----1---|
------2-----2-----2-----2-----2-----2-----2-----2-|
  4
  1
    1 
      2 
..................................................
  |----6----| |----6----| |----6----| |----6----| 
  S S S S S S S S S S S S S S S S S S S S S S S S  
--------------------------------------------------|
--------------------------------------------------|
--L-----------------------------------------------|
--1-----1-----1-----1-----1-----1-----1-----1-----|
----1-----1-----1-----1-----1-----1-----1-----1---|
------2-----2-----2-----2-----2-----2-----2-----2-|



  
  cII.............................................
  |----6----| |----6----| |----6----| |----6----| 
  S S S S S S S S S S S S S S S S S S S S S S S S  
--------------------------------------------------|
--------------------------2-----------3-----------|
--4-----------------------------------------------|
--2-----2-----2-----2-----2-----2-----2-----2-----|
----2-----2-----2-----2-----2-----2-----2-----2---|
------3-----3-----3-----3-----3-----3-----3-----3-|
  4                       1           3 
  1
    1
      2

  |----6----| |----6----| |----6----| |----6----|  
  S S S S S S S S S S S S S S S S S S S S S S S S  
--0-----------------------------------------------|
--------------------------------------------------|
--------------------------------------------------|
--4-----4-----4-----4-----4-----4-----4-----4-----|
----1-----1-----1-----1-----1-----1-----1-----1---|
------2-----2-----2-----2-----2-----2-----2-----2-|
  
  4  
    1 
      2
 
  |----6----| |----6----| |----6----| |----6----|   
  S S S S S S S S S S S S S S S S S S S S S S S S   
--L-----------------------------------------------|| D.S. al Fine
--------------------------------------------------||
--------------------------------------------------|| 
--4-----4-----4-----4-----4-----4-----4-----4-----||
----1-----1-----1-----1-----1-----1-----1-----1---||
------2-----2-----2-----2-----2-----2-----2-----2-|| Fine






Duration Legend
---------------
W - whole
H - half
Q - quarter
E - 8th
S - 16th
T - 32nd
X - 64th
. - note dotted
|-n-|  - n-tuplets


Tablature Legend
----------------
L - tied note
x - dead note
g - grace note
(n) - ghost note
> - accentuded note
NH - natural harmonic
AH - artificial harmonic
TH - tapped harmonic
SH - semi harmonic
PH - pitch harmonic
h - hammer on
p - pull off
b - bend
br - bendRelease
pb - preBend
pbr - preBendRelease
brb - bendReleaseBend
\n/ - tremolo bar dip
\n - tremolo bar dive
-/n - tremolo bar Release up
/n\ - tremolo bar inverted dip
/n - tremolo bar return
-\n - tremolo bar Release down
S - shift slide
s - legato slide
/ -  slide into from below or out of upwards
\ -  slide into from above or out of downwards
~ - vibrato
W - wide vibrato
tr - trill
TP - tremolo picking
T - tapping
S - slap
P - pop
< - fade in
^ - brush up
v - brush down
% - segno
cN - full/partial bar Nth fret