Login or Register to remove this ad. | Advertise Here

Cleyra Settlement (Final Fantasy IX) Guitar Tab

Submitted: Jul 02, 2009 by auriplane (Last updated: Feb 04, 2010)

5
Average: 5 (4 votes)
Download | Listen
Game: Final Fantasy IX
Composer(s): Nobuo Uematsu
Style: Arrangement, Fingerstyle
Series: Final Fantasy

AutoScroll: Slow | Medium | Fast
            Final Fantasy IX - Cleyra Settlement GUITAR TAB
                        Song by Nobuo Uematsu

           Arranged & tabbed by auriplane (crystal@panix.com)


Standard tuning, capo on 3.

    Part A

e |0---------0----|2---------2----|0---------0----|0--------------|
B |2----2----2----|3----3----3----|2----2----2----|2--------------|
G |-----2---------|-----2---------|-----2---------|---------------|
D |---------------|0--------------|---------------|---------------|
A |0--------------|---------------|0--------------|0--------------|
E |---------------|---------------|---------------|---------------|
                                                                
 
e |0---------0----|5----2----5----|4---------4----|4--------------|
B |2----2----2----|2----2----2----|5----5----5----|5--------------|
G |-----2---------|---------------|-----6---------|---------------|
D |---------------|---------------|---------------|---------------|
A |0--------------|---------------|4--------------|4--------------|
E |---------------|2--------------|---------------|---------------|

                                                                 
e |---------------|0---------0----|---------------|---------------|
B |3---------3----|2----2----2----|3---------3----|3--------------|
G |4----4----4----|---------------|4----4----4----|4--------------|
D |-----4---------|-----2---------|-----4---------|---------------|
A |2--------------|4--------------|2--------------|2--------------|
E |---------------|---------------|---------------|---------------|

                                                   1st ending
                                                                 
e |---------------|2---------0----|---------------|---------------|
B |3---------3----|---------------|3----2----0----|2--------------|
G |4----4----4----|2--------------|---------------|2--------------|
D |-----4---------|---------------|2--------------|---------------|
A |2--------------|---------------|0--------------|0--------------|
E |---------------|0--------------|---------------|---------------|
                                                            
                                                   2nd ending
     
                                                  |---------------|
                                                  |---------------|
                                                  |2--------------|
                                                  |2--------------|
                                                  |0--------------|
                                                  |---------------|


    Part B

e |2---------2----|5----2----5----|4----2----4----|5--------------|
B |3----3----3----|3----3----3----|0--------------|2--------------|
G |-----2---------|---------------|---------------|---------------|
D |0--------------|---------------|2--------------|---------------|
A |---------------|2--------------|---------------|0--------------|
E |---------------|---------------|---------------|---------------|

                                                                 
e |2----4----5----|---------------|0--------------|---------------|
B |3--------------|3----2----0----|-----3----0----|2--------------|
G |---------------|---------------|1--------------|2--------------|
D |0--------------|4--------------|2--------------|---------------|
A |---------------|2--------------|---------------|0--------------|
E |---------------|---------------|---------------|---------------|

                                                                 
e |2---------2----|5----2----5----|4----2----4----|5--------------|
B |3----3----3----|3----3----3----|0--------------|2--------------|
G |-----2---------|---------------|---------------|---------------|
D |0--------------|---------------|2--------------|---------------|
A |---------------|2--------------|---------------|0--------------|
E |---------------|---------------|---------------|---------------|

                                                                 
e |2----4----5----|5----4----2----|7--------------|L--------------|
B |---------------|4--------------|9--------------|L--------------|
G |2--------------|---------------|---------------|---------------|
D |---------------|---------------|---------------|0--------------|
A |---------------|2--------------|7--------------|---------------|
E |2--------------|---------------|---------------|---------------|


e |---------------|---------------|
B |---------------|---------------|
G |---------------|---------------|
D |---------------|---------------|
A |4--------------|2--------------|
E |---------------|---------------|

    Now, play Part A again (both repeats).

4 comments on Cleyra Settlement

such a fun song xd

such a fun song xd

Very good job

5

Very good job

That's nice.

5

That's nice.

Nice!

5

Nice! Who ever thought a town inside a sandstorm could have a song so peaceful? (: