Login or Register to remove this ad. | Advertise Here

Bran Bal, the Village Without Souls (Final Fantasy IX) Guitar Tab

Submitted: Jul 19, 2009 by natenmn (Last updated: Feb 04, 2010)

5
Average: 5 (4 votes)
Download | Listen
Game: Final Fantasy IX
Composer(s): Nobuo Uematsu
Style: Arrangement, Fingerstyle, Natural harmonics
Series: Final Fantasy

AutoScroll: Slow | Medium | Fast
            Bran Bal, the Village Without Souls - Final Fantasy IX
                              Nobuo Uematsu 
                   


Arrangement: Nathan Nordstrom
7/18/2009                      


                                                                   
Guitar I (Capo 1)



      E  E  E  E  E  E     E  E  E  E  E  E     E  E  E  E  E  E   
E||---------------------|--------------------|--------------------|
B||---4-----5-----4-----|--7-----5-----4-----|--3--------3--------|
G||*-----------4--------|-----------4--------|--------4-----4-----|
D||*--------6-----6-----|--------6-----6-----|-----4-----------4--|
A||------6-----------6--|-----6-----------6--|--2-----------------|
E||---4-----------------|--4-----------------|--------------------|


  E  E  E  E  E  E     E  E  E  E  E  E     E  E  E  E  E  E   
--------------------|--------0-----------|--2-----0-----------|
-----------3--------|--3--------0--3-----|-----------0--3-----|
--------4-----4-----|--------0-----0-----|--------0-----0-----|
-----4-----------4--|-----0-----------0--|-----0-----------0--|
--2-----------------|--------------------|--------------------|
--------------------|--3-----------------|--3-----------------|


  E  E  E  E  E  E     E  E  E  E  E  E     E  E  E  E  E  E   
--------------------|--------------------|--------------------|
--2-----------------|--------------------|--2-----3-----2-----|
-----------0--------|-----------0--------|-----------2--------|
--------2-----2-----|--------2-----2-----|--------4-----4-----|
-----2-----------2--|-----2-----------2--|-----4-----------4--|
--0-----------------|--0-----------------|--2-----------------|


  E  E  E  E  E  E     E  E  E  E  E  E     E  E  E  E  E  E   
--------------------|--------------------|--------------------|
--5-----3-----2-----|--0--------0--------|-----------0--------|
-----------2--------|--------0-----0-----|--------0-----0-----|
--------4-----4-----|-----0-----------0--|-----0-----------0--|
-----4-----------4--|--------------------|--------------------|
--2-----------------|--3-----------------|--3-----------------|


  E  E  E  E  E  E     E  E  E  E  E  E     E  E  E  E  E  E   
--------------------|--------------------|--------------------|
--0-----------------|--------------------|-----------4--------|
-----------0--------|--0--------0--2-----|--4-----4-----4-----|
--------2-----2-----|--------2-----2-----|-----4-----------4--|
-----2-----------2--|-----2-----------2--|--2-----------------|
--0-----------------|--0-----------------|--------------------|


  E  E  E  E  E  E     E  E  E  E  E  E     E  E  E  E  E  E   
--------------------|--------------------|--------------------|
-----------4--------|--------4--0--4-----|--------4--0--4-----|
--------4-----4-----|-----4-----6-----4--|-----4-----6-----4--|
-----4-----------4--|--------6-----6-----|--------6-----6-----|
--2-----------------|-----6-----------6--|-----6-----------6--|
--------------------|--4-----------------|--4-----------------|


  E  E  E  E  E  E     E  E  E  E  E  E     E  E  E  E  E  E   
--------2--0--2-----|--------2--0--2-----|--------------------|
-----0--0--3--0--3--|-----3--0--3--0--3--|-----0--0--0--0--0--|
--------------------|--------------------|--------7--6--7--0--|
-----4-----------4--|-----4-----------4--|-----0--5--7--5--0--|
--2-----------------|--2-----------------|--------------------|
--------------------|--------------------|--3-----------------|


  E  E  E  E  E  E     E  E  E  E  E  E     E  E  E  E  E  E   
--------------------|--------0-----0-----|--------0-----0-----|
-----0--0--0--0--0--|-----0-----3-----0--|-----0-----3-----0--|
--------7--6--7--0--|-----------0--------|-----------0--------|
-----0--5--7--5--0--|--------2-----2-----|--------2-----2-----|
--------------------|-----2-----------2--|-----2-----------2--|
--3-----------------|--0-----------------|--0-----------------|


  E  E  E  E  E  E     E  E  E  E  E  E     E  E  E  E  E  E   
--------------------|--------------------|--------------------|
--------2--0--2-----|--------2--0--2-----|-----0--3--2--3--0--|
-----2--2--2--2--2--|-----2--2--2--2--2--|--------0--4--0-----|
--------4-----4--4--|--------4-----4--4--|-----0-----------0--|
-----4-----------4--|-----4-----------4--|--------------------|
--2-----------------|--2-----------------|--3-----------------|


  E  E  E  E  E  E     E  E  E  E  E  E     E  E  E  E  E  E   
--------------------|--------0-----0-----|--------0-----0-----|
-----0--3--2--3--0--|-----0--0--3--0--0--|-----0--0--3--0--0--|
--------0--4--0-----|-----------2-----0--|-----------2-----0--|
-----0-----------0--|--------2--5--2-----|--------2--5--2-----|
--------------------|-----2-----------2--|-----2-----------2--|
--3-----------------|--0-----------------|--0-----------------|


  E  E  E  E  E  E     E  E  E  E  E  E     E  E  E  E  E  E   
--------------------|--------------------|--7--------9--7-----|
--------4--4--4-----|--------4--4--4-----|-----------0--------|
--------4--6--4--4--|--------4--6--4--4--|--------------------|
-----4-----------4--|-----4-----------4--|--------6-----6-----|
--------------------|--------------------|-----6-----------6--|
--7-----------------|--7-----------------|--4-----------------|


  E  E  E  E  E  E     E  E  E  E  E  E     E  E  E  E  E  E   
--3-----------3-----|--2-----------------|--2-----------2-----|
--------------------|-----------3--5-----|--------------------|
-----------0--------|--------4-----4-----|-----------2--------|
--------2-----2-----|-----4-----------4--|--------4-----4-----|
-----2-----------2--|--2-----------------|-----4-----------4--|
--0-----------------|--------------------|--2-----------------|


  E  E  E  E  E  E     E  E  E  E  E  E     E  E  E  E  E  E   
--5-----7-----5-----|--2-----------0-----|--2-----------------|
-----------7--------|-----------3--------|--------------------|
--------7-----7-----|-----------1--------|-----------4--------|
-----7-----------7--|--------2-----2-----|--------4-----4-----|
--5-----------------|-----2-----------2--|-----4-----------4--|
--------------------|--0-----------------|--2-----------------|


  E  E  E  E  E  E     E  E  E  E  E  E     E  E  E  E  E  E   
--2-----------------|--7--------9--7-----|--3--------0--3-----|
--------------------|--------0-----0-----|--------1-----1-----|
-----------3--------|-----------7--------|-----0-----------0--|
--------4-----4-----|--------------------|--------------------|
-----4-----------4--|-----9-----------9--|--3-----------------|
--2-----------------|--7-----------------|--------------------|


  E  E  E  E  E  E     E  E  E  E  E  E     E  E  E  E  E  E   
--2--------2--0-----|--2-----------2-----|--5-----7-----5-----|
--------3--3--3-----|--------------------|-----------7--------|
-----2-----------2--|-----------2--------|--------7-----7-----|
--0-----------------|--------4-----4-----|-----7-----------7--|
--------------------|-----4-----------4--|--5-----------------|
--------------------|--2-----------------|--------------------|


  E  E  E  E  E  E     E  E  E  E  E  E     E  E  E  E  E  E     
--2-----------0-----|--2-----------------|--2------------------||
-----------3--------|--------------------|---------------------||
-----------1--------|-----------4--------|-----------3--------*||
--------2-----2-----|--------4-----4-----|--------4-----4-----*||
-----2-----------2--|-----4-----------4--|-----4-----------4---||
--0-----------------|--2-----------------|--2------------------||


                                   ^              NH         
  E  E  E  E  E  E     E  E  E  E  Q       Q      H          
--2-----------------|--------------2----|--L---------------||
--------------------|-------------------|-------<>7--------||
-----------3--------|-----------3--3----|--L---------------||
--------4-----4-----|--------4-----4----|--L---------------||
-----4-----------4--|-----4--------4----|--L---------------||
--2-----------------|--2-----------2----|--L---------------||




Duration Legend
---------------
W - whole
H - half
Q - quarter
E - 8th
S - 16th
T - 32nd
X - 64th
. - note dotted
|-n-|  - n-tuplets


Tablature Legend
----------------
L - tied note
x - dead note
g - grace note
(n) - ghost note
> - accentuded note
NH - natural harmonic
AH - artificial harmonic
TH - tapped harmonic
SH - semi harmonic
PH - pitch harmonic
h - hammer on
p - pull off
b - bend
br - bendRelease
pb - preBend
pbr - preBendRelease
brb - bendReleaseBend
\n/ - tremolo bar dip
\n - tremolo bar dive
-/n - tremolo bar Release up
/n\ - tremolo bar inverted dip
/n - tremolo bar return
-\n - tremolo bar Release down
S - shift slide
s - legato slide
/ -  slide into from below or out of upwards
\ -  slide into from above or out of downwards
~ - vibrato
W - wide vibrato
tr - trill
TP - tremolo picking
T - tapping
S - slap
P - pop
< - fade in
^ - brush up
v - brush down