Login or Register to remove this ad. | Advertise Here

Bran Bal (Final Fantasy IX) Guitar Tab

Submitted: Jun 02, 2010 by Daugreano

0
Download | Listen
Game: Final Fantasy IX
Composer(s): Nobuo Uematsu
Style: Alternate picking, Transcription
Series: Final Fantasy

AutoScroll: Slow | Medium | Fast
Song: Bran Bal
Game: Final Fantasy Ix
Composer: Nobuo Uematsu
Tabbed by: Daugreano


Guitar:
Look at the files in the zip to play along...That thing with the last measure is just tied notes...


   E   E   E   E   E   E     E   E   E   E   E   E     E   E   E   E   E   E     E   E   E   E   E   E
E|-------------------------|-------------------------|-------------------------|-------------------------|
B|-------------1-----------|-------------1-----------|---------1---4---1-------|---------1---4---1-------|
G|---------2-------2-------|---------2-------2-------|-----0---------------0---|-----0---------------0---|
D|-----2---------------2---|-----2---------------2---|-------------------------|-------------------------|
A|-0-----------------------|-0-----------------------|-3-----------------------|-3-----------------------|
E|-------------------------|-------------------------|-------------------------|-------------------------|

   E   E   E   E   E   E     E   E   E   E   E   E     E   E   E   E   E   E     E   E   E   E   E   E
E|-------------------------|-------------------------|-------------------------|-------------------------|
B|-------------1-----------|-------------1-----------|-------------------------|-------------------------|
G|---------1-------1-------|---------1-------1-------|-------------1-----------|-------------1-----------|
D|-----1---------------1---|-----1---------------1---|---------3-------3-------|---------3-------3-------|
A|-------------------------|-------------------------|-----3---------------3---|-----3---------------3---|
E|-4-----------------------|-4-----------------------|-1-----------------------|-1-----------------------|

   E   E   E   E   E   E     E   E   E   E   E   E     E   E   E   E   E   E     E   E   E   E   E   E
E|-------------------------|-------------------------|-------------------------|-------------------------|
B|-------------------------|-------------------------|-------------1-----------|-------------1-----------|
G|---------0---3---0-------|---------0---3---0-------|---------1-------1-------|---------1-------1-------|
D|-----0---------------0---|-----0---------------0---|-----1---------------1---|-----1---------------1---|
A|-------------------------|-------------------------|-------------------------|-------------------------|
E|-3-----------------------|-3-----------------------|-4-----------------------|-4-----------------------|

   E   E   E   E   E   E     E   E   E   E   E   E     E   E   E   E   E   E     E   E   E   E   E   E
E|-------------------------|-------------------------|-------------0-----------|-------------0-----------|
B|-------------------------|-------------------------|---------1-------1-------|---------1-------1-------|
G|-------------1-----------|-------------1-----------|-----0---------------0---|-----0---------------0---|
D|---------3-------3-------|---------3-------3-------|-------------------------|-------------------------|
A|-----3---------------3---|-----3---------------3---|-3-----------------------|-3-----------------------|
E|-1-----------------------|-1-----------------------|-------------------------|-------------------------|

   E   E   E   E   E   E     E   E   E   E   E   E     E   E   E   E   E   E     E   E   E   E   E   E
E|-------------------------|-------------------------|-------------------------|-------------------------|
B|-------------------------|-------------------------|-------------------------|-------------------------|
G|-------------------------|-------------------------|---------0-------0-------|---------0-------0-------|
D|---------2---0---2-------|---------2---0---2-------|---------1---3---1---1---|-----1---1---3---1---1---|
A|-----3---3---2---3---3---|-----3---3---2---3---3---|-----3-------5-------3---|-------------5-------3---|
E|---------------------5---|-0-------------------5---|-------------------------|-3-----------------------|

   E   E   E   E   E   E     E   E   E   E   E   E     E   E   E   E   E   E     E   E   E   E   E   E
E|-------------------------|-------------------------|-------------------------|-------------------------|
B|-------------------------|-------------------------|-------------------------|-------------------------|
G|-------------------------|-------------------------|-------------------------|-------------------------|
D|---------1---0---1-------|---------1---0---1-------|---------3---1---3-------|---------3---1---3-------|
A|-----3---3---1---3---3---|-----3---3---1---3---3---|-----3---3---1---3---3---|-----3---3---1---3---3---|
E|---------------------4---|---------------------4---|---------------------4---|-1-------------------4---|

   E   E   E   E   E   E     E   E   E   E   E   E     E   E   E   E   E   E     E   E   E   E   E   E
E|-------------------------|-------------------------|-------------------------|-------------------------|
B|-------------------------|-------------------------|-------------------------|-------------------------|
G|-------------------------|-------------------------|-------------------------|-------------------------|
D|---------0-------0-------|---------0-------0-------|---------1---0---1-------|---------1---0---1-------|
A|-----1---1---3---1---1---|-----1---1---3---1---1---|-----3---3---1---3---3---|-----3---3---1---3---3---|
E|-------------5-------3---|-------------5-------3---|---------------------4---|---------------------4---|

   E   E   E   E   E   E     E   E   E   E   E   E     E   E   E   E   E   E     E   E   E   E   E   E
E|-------------------------|-------------------------|-------------------------|-------------------------|
B|-------------------------|-------------------------|-------------------------|-------------------------|
G|-------------------------|-------------------------|-------------------------|-------------------------|
D|---------3---1---3-------|---------3---1---3-------|---------2---0---2-------|---------2---0---2-------|
A|-----3---3---1---3---3---|-----3---3---1---3---3---|---------3---2---3---3---|---------3---2---3---3---|
E|---------------------4---|-1-------------------4---|-----3---------------3---|-----3---------------3---|

   E   E   E   E   E   E     E   E   E   E   E   E     E   E   E   E   E   E     E   E   E   E   E   E
E|-------------------------|-------------------------|-------------------------|-------------------------|
B|-------------1-----------|-------------------------|---------1---4---1-------|-------------------------|
G|---------2-------2-------|-------------1-----------|-----0---------------0---|---------0---3---0-------|
D|-----2---------------2---|---------3-------3-------|-------------------------|-----0---------------0---|
A|-0-----------------------|-----3---------------3---|-3-----------------------|-------------------------|
E|-------------------------|-1-----------------------|-------------------------|-3-----------------------|

   E   E   E   E   E   E     E   E   E   E   E   E     E   E   E   E   E   E     E   E   E   E   E   E
E|-------------3-----------|-------------------------|-------------------------|-------------------------|
B|---------4-------4-------|-------------------------|-------------1-----------|-------------0-----------|
G|-----3---------------3---|-------------2-----------|---------0-------0-------|---------0-------0-------|
D|-1-----------------------|---------3-------3-------|-----0---------------0---|-----0---------------0---|
A|-------------------------|-----3---------------3---|-------------------------|-------------------------|
E|-------------------------|-1-----------------------|-3-----------------------|-3-----------------------|

   E   E   E   E   E   E     E   E   E   E   E   E     E   E   E   E   E   E     E   E   E   E   E   E
E|-------------------------|-------------1-----------|-------------3-----------|-------------------------|
B|---------1---4---1-------|---------2-------2-------|---------4-------4-------|-------------------------|
G|-----0---------------0---|-----1---------------1---|-----3---------------3---|---------0---3---0-------|
D|-------------------------|-------------------------|-1-----------------------|-----0---------------0---|
A|-3-----------------------|-4-----------------------|-------------------------|-------------------------|
E|-------------------------|-------------------------|-------------------------|-3-----------------------|

   E   E   E   E   E   E     E   E   E   E   E   E     E   E   E   E   E   E     E   E   E   E   E   E---
E|-------------3-----------|-------------------------|-------------------------|-------------------------|
B|---------4-------4-------|-------------------------|-------------1-----------|-------------0-----------|
G|-----3---------------3---|-------------2-----------|---------0-------0-------|---------0-------0-------|
D|-1-----------------------|---------3-------3-------|-----0---------------0---|-----0---------------0---|
A|-------------------------|-----3---------------3---|-------------------------|-------------------------|
E|-------------------------|-1-----------------------|-3-----------------------|-3-----------------------|

  -Q----Q----Q----  
E|----------------|            
B|----------------| 
G|----------------|   <<<------ No strumming on this measure...it is tied to the measure before it...         
D|-0----0----0----|            
A|----------------|            
E|----------------|