Login or Register to remove this ad. | Advertise Here

Birth of a new Queen (Final Fantasy IX) Guitar Tab

Submitted: Oct 11, 2009 by styx01x (Last updated: Feb 06, 2010)

0
Download | Listen
Game: Final Fantasy IX
Composer(s): Nobuo Uematsu
Style: Transcription
Series: Final Fantasy

AutoScroll: Slow | Medium | Fast
Birth of a new Queen                   
Final Fantasy 9 OST+
Composed by Nobuo Uematsu
Arranged by Styx01x


     Q    E  E  Q.     E     E  E  E  E  Q.     E   
E||-------5--7------------|------------------------|
B||--8----------7------7--|--7--8--7---------------|
G||-----------------------|-----------7--9------9--|
D||-----------------------|------------------------|
A||-----------------------|------------------------|
E||-----------------------|------------------------|


   E  E  E   E   Q    E  E     S S  H        Q    E   
--/8--7--7------------------|------------------------|
------------10--10----8-----|--7-8-10----------------|
-------------------------9--|----------------9----7--|
----------------------------|------------------------|
----------------------------|------------------------|
----------------------------|------------------------|


   E  Q     E  E   Q    E     E  Q    Q    Q     E   
---------------7--10----7--|------------------------|
------8----10--------------|--8--7------------------|
---------------------------|----------9----7--------|
--10-----------------------|--------------------10--|
---------------------------|------------------------|
---------------------------|------------------------|


   E  E  E  E   E   Q.         E   E  E  E  E  E   E  E   
------8--7--7--------------|------10--8--8--7--7------7--|
---------------10--10------|--10------------------10-----|
---------------------------|-----------------------------|
---L-----------------------|-----------------------------|
---------------------------|-----------------------------|
---------------------------|-----------------------------|


  E   Q.     E  E  E  E      E   Q.     E   Q.         H.           Q           
--8--10------7--8--7-----|-------------------------|---------------------|-----|
----------------------7--|--10--10------8---8------|---L-----------------|-----|
-------------------------|------------------7------|---L-----------------|-----|
-------------------------|------------------9------|---L-----------------|-----|
-------------------------|-----------------10------|---L-----------------|-----|
-------------------------|-------------------------|---------------------|-----|


-------|-------|-------||
-------|-------|-------||
-------|-------|-------||
-------|-------|-------||
-------|-------|-------||
-------|-------|-------||




Duration Legend
---------------
W - whole
H - half
Q - quarter
E - 8th
S - 16th
T - 32nd
X - 64th
. - note dotted
|-n-|  - n-tuplets


Tablature Legend
----------------
L - tied note
x - dead note
g - grace note
(n) - ghost note
> - accentuded note
NH - natural harmonic
AH - artificial harmonic
TH - tapped harmonic
SH - semi harmonic
PH - pitch harmonic
h - hammer on
p - pull off
b - bend
br - bendRelease
pb - preBend
pbr - preBendRelease
brb - bendReleaseBend
\n/ - tremolo bar dip
\n - tremolo bar dive
-/n - tremolo bar Release up
/n\ - tremolo bar inverted dip
/n - tremolo bar return
-\n - tremolo bar Release down
S - shift slide
s - legato slide
/ -  slide into from below or out of upwards
\ -  slide into from above or out of downwards
~ - vibrato
W - wide vibrato
tr - trill
TP - tremolo picking
T - tapping
S - slap
P - pop
< - fade in
^ - brush up
v - brush down