Login or Register to remove this ad. | Advertise Here

Beyond the Twilight (Final Fantasy IX) Guitar Tab

Submitted: May 31, 2010 by Daugreano

5
Average: 5 (1 vote)
Download | Listen
Game: Final Fantasy IX
Composer(s): Nobuo Uematsu
Style: Alternate picking, Transcription
Series: Final Fantasy

AutoScroll: Slow | Medium | Fast
Song: Beyond The Twilight
Game: Final Fantasy Ix
Composer: Nobuo Uematsu
 
Tabbed by: Daugreano

Quick note: In The first few measures I placed some tied notes, they are the whole notes followed by
dashes just hold the notes until you come to the end of the dashes...
they look like this "W--------", tuxguitar 
placed extra notes that look like they should be strummed but they aren't.  --Daugreano


Guitar

   Q    Q    Q    Q      W------------------- W         Q    Q    Q    Q      W-------------------
E|-10---8----7----5----|-7----7----7----7----|--------|-10---8----7----5----|-4----4----4----4----|
B|-6-------------------|-5----5----5----5----|--------|-6-------------------|-5----5----5----5----|
G|---------------------|---------------------|--------|---------------------|---------------------|
D|---------------------|---------------------|--------|---------------------|---------------------|
A|---------------------|---------------------|--------|---------------------|---------------------|
E|---------------------|---------------------|--------|---------------------|---------------------|

  W         Q    Q    Q    Q      W------------------- W         Q    Q    Q    Q
E|--------|-3----1----3----4----|-5----5----5----5----|--------|-3----1----0---------|
B|--------|-3-------------------|-2----2----2----2----|--------|----------------3----|
G|--------|---------------------|---------------------|--------|-3-------------------|
D|--------|---------------------|---------------------|--------|---------------------|
A|--------|---------------------|---------------------|--------|---------------------|
E|--------|---------------------|---------------------|--------|---------------------|

   w------------------- W          S  S  E   S  S  E   S  S  E   S  S  E
E|---------------------|---------|----5--10-----3--8------1--7------1--5---|
B|-2----2----2----2----|---------|-3---------3---------3---------3---------|
G|-2----2----2----2----|---------|-----------------------------------------|
D|---------------------|---------|-----------------------------------------|
A|---------------------|---------|-----------------------------------------|
E|---------------------|---------|-----------------------------------------|

   S  S  S  S  S  S  S  S  S  S  S  S  S  S  S  S    S  S  S  S  S  S  S  S  S  S  S  S  S  S  S  S
E|----0--4--7-----0--4--7-----0--4--7-----0--4--7--|----0--4--7-----0--4--7-----0--4--7-----0--4--7--|
B|-3-----------3-----------3-----------3-----------|-3-----------3-----------3-----------3-----------|
G|-------------------------------------------------|-------------------------------------------------|
D|-------------------------------------------------|-------------------------------------------------|
A|-------------------------------------------------|-------------------------------------------------|
E|-------------------------------------------------|-------------------------------------------------|

   S  S  E   S  S  E   S  S  E   S  S  E     S  S  S  S  S  S  S  S  S  S  S  S  S  S  S  S
E|----5--10-----3--8------1--7------1--5---|----0--4--7-----0--4--7-----0--4--7-----0--4--7--|
B|-3---------3---------3---------3---------|-3-----------3-----------3-----------3-----------|
G|-----------------------------------------|-------------------------------------------------|
D|-----------------------------------------|-------------------------------------------------|
A|-----------------------------------------|-------------------------------------------------|
E|-----------------------------------------|-------------------------------------------------|

   S  S  S  S  S  S  S  S  S  S  S  S  S  S  S  S    S  S  E   S  S  E   S  S  E   S  S  E
E|----0--4--7-----0--4--7-----0--4--7-----0--4--7--|-------3---------1---------3---------4---|
B|-3-----------3-----------3-----------3-----------|----3---------3---------3---------3------|
G|-------------------------------------------------|-3---------3---------3---------3---------|
D|-------------------------------------------------|-----------------------------------------|
A|-------------------------------------------------|-----------------------------------------|
E|-------------------------------------------------|-----------------------------------------|

   S  S  S  S  S  S  S  S  S  S  S  S  S  S  S  S    S  S  S  S  S  S  S  S  S  S  S  S  S  S  S  S
E|-------0--5--------0--5--------0--5--------0--5--|-------0--5--------0--5--------0--5--------0--5--|
B|----2-----------2-----------2-----------2--------|----2-----------2-----------2-----------2--------|
G|-2-----------2-----------2-----------2-----------|-2-----------2-----------2-----------2-----------|
D|-------------------------------------------------|-------------------------------------------------|
A|-------------------------------------------------|-------------------------------------------------|
E|-------------------------------------------------|-------------------------------------------------|

   S  S  E   S  S  E   S  S  E   S  S  E     S  S  S  S  S  S  S  S  S  S  S  S  S  S  S  S
E|-------3---------1---------0-------------|-------0--5--------0--5--------0--5--------0--5--|
B|----3---------3---------3------------3---|----2-----------2-----------2-----------2--------|
G|-3---------3---------3---------0--3------|-2-----------2-----------2-----------2-----------|
D|-----------------------------------------|-------------------------------------------------|
A|-----------------------------------------|-------------------------------------------------|
E|-----------------------------------------|-------------------------------------------------|

   S  S  S  S  S  S  S  S  S  S  S  S  S  S  E
E|-------0--5--------0--5--------0--5--------0---|
B|----2-----------2-----------2-----------2------|
G|-2-----------2-----------2-----------2---------|
D|-----------------------------------------------|
A|-----------------------------------------------|
E|-----------------------------------------------|


And Repeat...