Login or Register to remove this ad. | Advertise Here

Battle 2 (Boss) (Final Fantasy IX) Guitar Tab

Submitted: Sep 19, 2009 by rustysteiner

3
Average: 3 (2 votes)
Download | Listen
Game: Final Fantasy IX
Composer(s): Nobuo Uematsu
Style: 2 or more instruments, Transcription
Series: Final Fantasy

AutoScroll: Slow | Medium | Fast
Song: Battle 2 (Boss Theme)
Game: Final Fantasy IX
Composer: Nobuo Uematsu
Tabbed By: rustysteiner
Date: September 18, 2009


I'm pretty sure it's accurate, but sorry if it is not easy to read. 

could'nt fugure out the intro by ear, so here it is from 0:17:



     
0:17
     Guitar 1:

e|-8~------8-9~-----9-8~-------8-7~-------8--9
B|-----6-9------6-9-------6-8--------6-9------
G|--------------------------------------------
D|--------------------------------------------
A|--------------------------------------------
E|--------------------------------------------
 |
 |    Guitar 2:
e|--------------------------------------------
B|--------------------------------------------
G|--------------------------------------------
D|--------------------------------------------
A|--------------------------------------------
E|--------------------------------------------



      Guitar 1:
e|--------------------------------------------
B|--------------------------------------------
G|--------------------------------------------
D|--------------------------------------------
A|--------------------------------------------
E|--------------------------------------------
 |
 |    Guitar 2:
e|--------------------------------------------
B|-6-8-9--8-9-11--8-11-9-8--------------------
G|-------------------------10-9-10-----10-8---
D|----------------------------------10------11
A|--------------------------------------------
E|--------------------------------------------

      
e|--------------------------------------------
B|--------------------------------------------
G|--------------------------------------------
D|-10-8-10-----10-8---------------------------
A|----------10------11--10-8-10---------------
E|--------------------------------------------
 |
 |   Guitar 1:
e|--------------------------------------------
B|---------------------------6~-----6-7~------
G|------------------------------5-6-----------
D|--------------------------------------------
A|--------------------------------------------
E|--------------------------------------------


      Guitar 1:
e|--------------------------------------------
B|-------7-6~-----6-5~-----5-6~---------------
G|--5-6-------5-6------5-6--------------------
D|--------------------------------------------
A|--------------------------------------------
E|--------------------------------------------
 |
 |    Guitar 2:
e|--------------------------------------------
B|--------------------------------------------
G|--------------------------------------------
D|--------------------------------------------
A|--------------------------------------------
E|--------------------------------------------


      Guitar 1:
e|--------------------------------------------
B|--6~-----6-7~-----7-6~------6-5~-----5-6~---
G|-----5-6------5-6-------5-6------5-6--------
D|--------------------------------------------
A|--------------------------------------------
E|--------------------------------------------
 |
 |    Guitar 2:
e|--8~-----8-9~-----9-8~------8-7~----7-8~----
B|-----8-9------8-9-------8-9-----8-9---------
G|--------------------------------------------
D|--------------------------------------------
A|--------------------------------------------
E|--------------------------------------------

      Guitar 2:
e|--------------------------------------------
B|-6-8-9--8-9-11--8-11-9-8--------------------
G|-------------------------10-9-10-----10-8---
D|----------------------------------10------11
A|--------------------------------------------
E|--------------------------------------------
 |
 |    Guitar 1:
e|--------------------------------------------
B|--------------------------------------------
G|--------------------------------------------
D|--------------------------------------------
A|--------------------------------------------
E|--------------------------------------------

      Guitar 2: 
e|--------------------------------------------
B|--------------------------------------------
G|--------------------------------------------
D|-10-8-10-----10-8---------------------------
A|----------10------11--10-8-10---------------
E|--------------------------------------------
 |
 |    Guitar 1:
e|--------------------------------------------
B|--------------------------------------------
G|--------------------------------------------
D|--------------------------------------------
A|--------------------------------------------
E|--------------------------------------------


      Guitar 1:
e|--------------------------------------------
B|--6~-----6-7~-----7-6~------6-5~-----5-6~---
G|-----5-6------5-6-------5-6------5-6--------
D|--------------------------------------------
A|--------------------------------------------
E|--------------------------------------------
 |
 |    Guitar 2:
e|--------------------------------------------
B|--------------------------------------------
G|--------------------------------------------
D|--------------------------------------------
A|--------------------------------------------
E|--------------------------------------------

      Guitar 1:
e|--------------------------------------------
B|--------------------------------------------
G|--------------------------------------------
D|-3333-3-3-34------5555-5-5-57---------------
A|-3333-3-3-34------5555-5-5-57---------------
E|-1111-1-1-12------3333-3-3-35---------------
 |
 |   Guitar 2:
e|--------------------------------------------
B|--------------------------------------------
G|--------------------------------------------
D|--------------------------------------------
A|--------------------------------------------
E|--------------------------------------------


      Guitar 1:
e|--------------------------------------------
B|--------------------------------------------
G|--------------------------------------------
D|-3333-3-3-34------5555-5-5-57---------------
A|-3333-3-3-34------5555-5-5-57---------------
E|-1111-1-1-12------3333-3-3-35---------------
 |
 |   Guitar 2: <--------------------------------V
 |                                              |
e|--------------------------------------------  |
B|--------------------------------------------  |
G|--------------------------------------------  |
D|-10101010-10-10-10-11---12121212-12-12-12-14  |
A|-8-8-8-8--8--8--8--9----10101010-10-10-10-12  |
E|--------------------------------------------  |
                                                |
                                                |
It looks wierd, but   <-------------------------|
guitar 2 in the same
interval as guitar 1 

      Guitar 1:
e|--13-----11-----9---------------------------
B|-----14-----13----10------------------------
G|--------------------------------------------
D|----------------------------Play 8 Times----
A|--------------------------------------------
E|--------------------------------------------
 |  
 |    Guitar 2:
e|--------------------------------------------
B|--------------------------------------------
G|--------------------------------------------
D|--------------------------------------------
A|--------------------------------------------
E|--------------------------------------------


      Guitar 1:
e|--------------------------------------------
B|--------------------------------------------
G|--------------------------------------------
D|-3333-3-3-34------5555-5-5-57---------------
A|-3333-3-3-34------5555-5-5-57---------------
E|-1111-1-1-12------3333-3-3-35---------------
 |
 |   Guitar 2: 
 |                                              
e|--------------------------------------------  
B|--------------------------------------------  
G|--------------------------------------------  
D|-10101010-10-10-10-11---12121212-12-12-12-14  
A|-8-8-8-8--8--8--8--9----10101010-10-10-10-12  
E|-------------------------------------------- 



And that's all folks! Repeat the whole thing 2
times, and you are done. Note: If it looks
confusing, just look at which guitar is playing 
which part, and it should be simple from there.