Login or Register to remove this ad. | Advertise Here

Battle 2 (Final Fantasy IX) Bass Tab

Submitted: Sep 08, 2011 by Turatu

0
Download | Listen
Game: Final Fantasy IX
Composer(s): Nobuo Uematsu
Style: Transcription
Series: Final Fantasy

This song is also called Boss Battle

AutoScroll: Slow | Medium | Fast
Song: Battle 2 Boss Theme
Game: Final Fantasy 9
Composer: Nobuo Uemastu
Tabber: Yvan Desjardins
Sept 8, 2011


First tab. Was fun to do. Easy too.
Tuning is Drop C.
you can play it with a pick, fingerstyle, or slap


G|-----------------|-----------------|
D|---3---1---3---6-|---3-------1---2-|
A|-----------------|-------3---------|
C|-5---3---5---8---|-5---0---3---4---|

-----------------|-----------------|
---3---1---3---6-|-----------------|
-----------------|-------3-1-------|
-5---3---5---8---|-5-0-5-----8-5-3-|


-----------------|-----------------|
---3---1---3---6-|---3-------1---2-| X3
-----------------|-------3---------|
-5---3---5---8---|-5---0---3---4---|

-----------------|-----------------|
---3---1---3---6-|-----------------|
-----------------|-------3-1-------|
-5---3---5---8---|-5-0-5-----8-5-3-|

---------------------|------------------|
----8---6----8----10-|----8-------6---7-| X3
---------------------|--------8---------|
-10---8---10---13----|-10---5---8---9---|

---------------------|---------------------|
----8---6----8----11-|---------------------|
---------------------|---------8-6---------|
-10---8---10---13----|-10-5-10-----13-10-8-|


-----------------|-----------------|
---3---1---3---6-|---3-------1---2-| X3
-----------------|-------3---------|
-5---3---5---8---|-5---0---3---4---|

-----------------|-----------------|
---3---1---3---6-|-----------------|
-----------------|-------3-1-------|
-5---3---5---8---|-5-0-5-----8-5-3-|

---------------------|------------------|
----8---6----8----10-|----8-------6---7-| X3
---------------------|--------8---------|
-10---8---10---13----|-10---5---8---9---|

---------------------|---------------------|
----8---6----8----11-|---------------------|
---------------------|---------8-6---------|
-10---8---10---13----|-10-5-10-----13-10-8-|


------------|------------|
------------|------------| X8
------------|------------|
------------|------------|


-----------------|-----------------|
---6---5---4---3-|---6---5---4---3-| X6
-----------------|-----------------|
-8---7---6---5---|-8---7---6---5---|

------------|------------|
------------|------------| X4
------------|------------|
------------|------------|

repeat to the infinity