Login or Register to remove this ad. | Advertise Here

Ambush Attack (Final Fantasy IX) Guitar Tab

Submitted: Mar 08, 2010 by Max_depa (Last updated: Mar 08, 2010)

5
Average: 5 (3 votes)
Download | Listen
Game: Final Fantasy IX
Composer(s): Nobuo Uematsu
Style: Arrangement, Fingerstyle
Series: Final Fantasy

AutoScroll: Slow | Medium | Fast
Ambush Attack - Final Fantasy IX
Arranged by: Max_depa
Composed by: Nobuo Eumatsu                                


     E  E  E  E  E  E  E  E     E  E  E  E  E  E  E  E  E  E   
E||--0--0--0--1-----------0--|--------------------------------|
B||--------------3--3--3-----|--1--1--1--3--0--0-----1--0-----|
G||--2--2--2--2--2--2--2--2--|--2--2--2--2--2--2--2--2--2--2--|
D||--------------------------|--------------------------------|
A||--0-----------------------|--------------------0--0--0--0--|
E||--------------------------|--------------------------------|


  E  E  E  E  E  E  E  E     E  E  E  E  E  E  E  E  E  E   
--0--0--0--1-----------0--|--------------------------------|
--------------3--3--3-----|--1--1--1--3--0--0-----1--0-----|
--2--2--2--2--2--2--2--2--|--2--2--2--2--2--2--2--2--2--2--|
--------------------------|--------------------------------|
--0-----------------------|--------------------0--0--0--0--|
--------------------------|--------------------------------|


  E  E  E  E  E  E  E  E     E  E  E  E  E  E  E  E  E  E   
--3--3--3--4--1--1--1--3--|--------------------------------|
--1--1--1--1--1--1--1--1--|--4--4--4--6--3--3-----4--3--1--|
--------------------------|--5--5--5--5--5--5--5--5--5-----|
--------------------------|--------------------------------|
--3-----------------------|--------------------3--3--3--3--|
--------------------------|--------------------------------|


  E  E  E  E  E  E  E  E     E  E  E  E  E  E  E  E  E  E   
--3--3--3--4--1--1--1--3--|--------------------------------|
--1--1--1--1--1--1--1--1--|--4--4--4--6--3--3-----4--3--1--|
--------------------------|--5--5--5--5--5--5--5--5--5-----|
--------------------------|--------------------------------|
--3-----------------------|--------------------3--3--3--3--|
--------------------------|--------------------------------|


  E  E  E  E  E  E  E  E     E  E  E  E  E  E  E  E  E  E   
--0--0--0--1-----------0--|--------------------------------|
--------------3--3--3-----|--1--1--1--3--0--0-----1--0-----|
--2--2--2--2--2--2--2--2--|--2--2--2--2--2--2--2--2--2--2--|
--------------2--L--------|--2--L--------2--L-----3--3--L--|
--0--L--------0--L--------|--0--L--------0--L-----0--0--L--|
--------------------------|--------------------------------|


  E  E  E  E  E  E  E  E     E  E  E  E  E  E  E  E  E  E   
--0--0--0--1-----------0--|--------------------------------|
--------------3--3--3-----|--1--1--1--3--0--0-----1--0-----|
--2--2--2--2--2--2--2--2--|--2--2--2--2--2--2--2--2--2--2--|
--------------2-----------|--2-----------2--------3--3--L--|
--0-----0-----0-----------|--0-----------0--------0--0--L--|
--------------------------|--------------------------------|


  E  E  E  E  E  E  E  E     E  E  E  E  E  E  E  E  E  E   
--3--3--3--4--1--1--1--3--|--------------------------------|
--1--1--1--1--1--1--1--1--|--4--4--4--6--3--3-----4--3-----|
--------------0-----------|--5--5--5--5--5--5--5--5--5--5--|
--------------------------|--------------------------------|
--3-----------3-----------|--3-----------3--------3--3-----|
--------------------------|--------------------------------|


  E  E  E  E  E  E  E  E     E  E  E  E  E  E  E  E  E  E   
--3--3--3--4--1--1--1--3--|--------------------------------|
--1--1--1--1--1--1--1--1--|--4--4--4--6--3--3-----4--3-----|
--------------0-----------|--5--5--5--5--5--5--5--5--5--5--|
--------------------------|--------------------------------|
--3-----3-----3-----------|--3-----------3--------3--3-----|
--------------------------|--------------------------------|


  E  E  E  E  E  E  E  E     E  E  E  E  E  E  E  E   
--------------------------|--------------0-----------|
--------------0-----------|--1-----------------------|
--2-----------0-----------|--------------------------|
--------------------------|--0-----------------------|
--0--0--0--0--0--0--0--0--|--0--0--0--0--3--0--0--0--|
--------------------------|--------------------------|


  E  E  E  E  E  E  E  E     E  E  E  E  E  E  E  E   
--1-----------------------|--------------------------|
--------1--------1--------|--------------------1-----|
-----------4--L-----1--0--|-----------0--L--1-----4--|
--------------------------|--2-----3-----------------|
--3--3--3--3--3--3--3--3--|--3--3--3--3--3--3--3--3--|
--------------------------|--------------------------|


  E  E  E  E  E  E  E  E     E  E  E  E  E  E  E  E   
--------------------------|--------------------0-----|
--------------0-----------|--1-----------3-----------|
--2-----------0-----------|--------------------------|
--------------------------|--0-----------------------|
--0--0--0--0--0--0--0--0--|--0--0--0--0--3--0--0--0--|
--------------------------|--------------------------|


  E  E  E  E  E  E  E  E     E  E  E  E  E  E  E  E   
--3-----1-----------------|--------------------------|
-----------1--L-----------|--4-----2-----------------|
-----------------1--0--1--|-----------3--L-----------|
--------------------------|-----------------4--3--4--|
--3--3--3--3--3--3--3--3--|--3--3--3--3--3--3--3--3--|
--------------------------|--------------------------|


  E  E  E  E  E  E  E  E     E  E  E  E  E  E  E  E   
--2-----------3-----------|--0-----------1-----------|
--------------------------|--------------------------|
-----1--2--1--------1-----|-----1--2--1--------2-----|
--0-----------0--3-----3--|--0-----------0--3-----3--|
--------------------------|--------------------------|
--------------------------|--------------------------|


  E  E  E  E  E  E  E  E     E  E  E  E  E  E  E  E   
--4-----------3-----4-----|--1-----------------------|
--------------------------|--------------------------|
--------1-----------------|--------1-----------1-----|
-----3-----3-----3-----3--|-----3-----3-----3-----3--|
--3-----------3-----3-----|--2-----------2-----------|
--------------------------|--------------------------|


  S S S S S S S S E  E  E  E     
--L----------------------------||
-------------------------------||
------1-------1---1--1--1--1--*||
----3---3---3---3-------------*||
--2-------2-------2--2--2--2---||
-------------------------------||




Duration Legend
---------------
W - whole
H - half
Q - quarter
E - 8th
S - 16th
T - 32nd
X - 64th
. - note dotted
|-n-|  - n-tuplets


Tablature Legend
----------------
L - tied note

3 comments on Ambush Attack

Sounds spot on to me, well

Sounds spot on to me, well done.

I never realized this was

5

I never realized this was that song!

ahahXD yes, this is that song

ahahXD yes, this is that song u.u