Login or Register to remove this ad. | Advertise Here

Melody of Lute (Final Fantasy IV) Guitar Tab

Submitted: Jul 23, 2010 by Daugreano (Last updated: Sep 11, 2012)

4.5
Average: 4.5 (2 votes)
Download | Listen
Game: Final Fantasy IV
Composer(s): Nobuo Uematsu
Style: Transcription
Series: Final Fantasy

AutoScroll: Slow | Medium | Fast
Song: Melody Of Lute
Game: Final Fantasy IV
Composer: Nobuo Uematsu
Tabbed by: Daugreano

Guitar: 

   E   E   E   E   E   E     E   E   E   E   E   E     E   E   E   E   E   E     E   E   E   E   E   E
E|-0-----------0-----------|-------------------------|-------------------------|-------------------------|
B|-------------------------|-3-----------1-----------|-1-----------0-----------|-0-----------------------|
G|---------0-----------0---|-------------------------|---------0-----------3---|-------------0-------2---|
D|-----4-----------2-------|-----0---4-------2---3---|-----3-----------0-------|-----2---3-------0-------|
A|-------------------------|-------------------------|-------------------------|-------------------------|
E|-------------------------|-------------------------|-------------------------|-------------------------|

   E   E   E   E   E   E     E   E   E   E   E   E     E   E   E   E   E   E     E   E   E   E   E   E
E|-1-----------1-----------|-0-----------------------|-------------------------|-------------------------|
B|-----0---1-----------1---|---------0---3-----------|-3-----------1-------0---|-1-----------------------|
G|-----------------2-------|-----0---------------0---|---------0---------------|-------------0-----------|
D|-------------------------|-----------------3-------|-----2-----------2-------|---------2-------2-------|
A|-------------------------|-------------------------|-------------------------|-----3---------------3---|
E|-------------------------|-------------------------|-------------------------|-------------------------|


   E   E   E   E   E   E     E   E   E   E   E   E     E   E   E   E   E   E     E   E   E   E   E   E

E|-3-----------3-----------|-1-----------0-----------|-1-------------------0---|-1-----------0-----------|
B|---------0-----------0---|-------------------------|-------------3-----------|---------------------3---|
G|-----2-----------0-------|-----2---3-------0---3---|---------2-------3-------|-----0---2---------------|
D|-------------------------|-------------------------|-----3-------------------|-----------------3-------|
A|-------------------------|-------------------------|-------------------------|-------------------------|
E|-------------------------|-------------------------|-------------------------|-------------------------|

                                                                   Slow down for this measure...|
                                                                                                V
   E   E   E   E   E   E     E   E   E   E   E   E     E   E   E   E   E   E     E   E   E   Q.
E|-0-----------0-----------|-------------------------|-------------------------|-------------------|
B|---------1-----------1---|-3-----------3-------0---|-1-------------------0---|-1-----------------|
G|-----0-----------0-------|---------1---------------|---------0---------------|-----0-------------|
D|-------------------------|-----3-----------2-------|-----3-------0---3-------|---------2---------|
A|-------------------------|-------------------------|-------------------------|-------------3-----|
E|-------------------------|-------------------------|-------------------------|-------------------|

Now speed back up for this one...then even more until the last measure, at which point you'll slow down again...
 |                                |
 V                                V
   E   E   E   E   E   E     E   E   E   E   E   E     E   E   E   E   E   E     E   E   E   E   E   E
E|-------------------------|-0-----------------------|-------------------------|-------------------------|
B|-0-----------0-----------|-------------0-----------|-3-----------1-------0---|-1-----------------------|
G|---------0-----------0---|---------0-----------0---|---------2---------------|---------0---2---0-------|
D|-----2-----------2-------|-----2-----------2-------|-----3-----------3-------|-----3---------------3---|
A|-------------------------|-------------------------|-------------------------|-------------------------|
E|-------------------------|-------------------------|-------------------------|-------------------------|

   E   E   E   E   E   E     E   E   E   E   E   E     E   E   E   E   E   E     E   E   E   E   E   E
E|-------------------------|-0-----------------------|-------------------------|-------------------------|
B|-0-----------0-----------|-------------0-----------|-3-----------1-------0---|-1---------------1---3---|
G|---------0-----------0---|---------0-----------0---|---------2---------------|-------------2-----------|
D|-----2-----------2-------|-----2-----------2-------|-----3-----------3-------|-----2---3---------------|
A|-------------------------|-------------------------|-------------------------|-------------------------|
E|-------------------------|-------------------------|-------------------------|-------------------------|

   E   E   E   E   E   E     E   E   E   E   E   E     E   E   E   E   E   E     E   E   E   E   E   E
E|-0-----------------------|-------------------------|-0-------1---0-----------|-------------------------|
B|-------------3-------1---|-0-----------------------|---------------------3---|-1-----------------------|
G|---------2---------------|-------------0-----------|-----0-----------0-------|---------2-----------2---|
D|-----3-----------3-------|-----0---3-----------0---|-------------------------|-----2-----------2-------|
A|-------------------------|-----------------2-------|-------------------------|-------------3-----------|
E|-------------------------|-------------------------|-------------------------|-------------------------|

   E   E   E   E   E   E     E   E   E   E   E   E     E   E   E   E   E   E     E   E   E   Q.
E|-------------------------|-------------------------|-------------------------|-------------------|
B|-3-----------------------|-1-----------3-----------|-1-----------------------|-0-----------------|
G|---------1-----------1---|-----0---1-----------1---|-------------2-----------|---------0---------|
D|-----1-----------1-------|-----------------1-------|-----0---3-------0---3---|-----3-------0-----|
A|-------------3-----------|-------------------------|-------------------------|-------------------|
E|-------------------------|-------------------------|-------------------------|-------------------|

Then Repeat...