Login or Register to remove this ad. | Advertise Here

Main Theme (Final Fantasy IV) Guitar Tab

Submitted: Sep 09, 2011 by BacardiBreezer

5
Average: 5 (2 votes)
Download | Listen
Game: Final Fantasy IV
Composer(s): Nobuo Uematsu
Style: Transcription
Series: Final Fantasy

AutoScroll: Slow | Medium | Fast
Main Theme
Final Fantasy 4
Composer: Nobuo Uematsu
Tabbed by Bacardibreezer
9/9/11

e|----------------------------------------------------------------------------|
B|------------8---7------------------8----------------------------------------|
G|---------9---------7~----7-7-9-10-----10-9-----------7~--------7~-----------|
D|--7--10-------------------------------------10-7-10--------10-------10-10~--|
A|----------------------------------------------------------------------------|
E|----------------------------------------------------------------------------| x2

e|----------------------------------------------------------------|
B|--------------10-8----8------------------------10-8----8--------|
G|--7-10-9-10--------10---9----------7-10-9-10--------10---9~-----|
D|--------------------------10~-----------------------------------|
A|----------------------------------------------------------------|
E|----------------------------------------------------------------|

e|-------------------------------------------------------------------------12-10----10-------------10~----10---------|
B|-------------12-10----10-----------------------12-10----10---10-13-12-13-------13----12~---12-13-----------13-12~--|
G|--9-12-11-12-------12----11---------9-12-11-12-------12------------------------------------------------------------|
D|----------------------------12~------------------------------------------------------------------------------------|
A|-------------------------------------------------------------------------------------------------------------------|
E|-------------------------------------------------------------------------------------------------------------------|