Login or Register to remove this ad. | Advertise Here

Main Theme (Final Fantasy IV) Guitar Tab

Submitted: May 30, 2010 by Daugreano (Last updated: Jun 26, 2010)

5
Average: 5 (1 vote)
Download | Listen
Game: Final Fantasy IV
Composer(s): Nobuo Uematsu
Style: Alternate picking, Transcription
Series: Final Fantasy

AutoScroll: Slow | Medium | Fast
Song: Main Theme
Game: Final Fantasy IV
Composer: Nobuo Uematsu
Tabbed by: Daugreano 


Guitar: 
   S  S  S  S  S  S  S  S  S  S  S  S  S  S  S  S    S  S  S  S  S  S  S  S  S  S  S  S  S  S  S  S
E|-------0--------------3--------0-----------3-----|----0--------------3--------0-----------3--------|
B|----1-----------0--3--------1--------0--3-----0--|-1--------1--0--3-----0--1--------1--3-----0-----|
G|-2--------2--0-----------2--------2--------------|-------2-----------------------2-----------------|
D|-------------------------------------------------|----------------------------------------------0--|
A|-------------------------------------------------|-------------------------------------------------|
E|-------------------------------------------------|-------------------------------------------------|

   W        H     E   E   E   E     H     Q    Q      Q    Q    Q    Q      W
E|--------|-----------------------|-----------------|---------------------|--------|
B|--------|-----------------------|-----------------|---------------------|--------|
G|--------|-----------------------|-------0---------|---------------------|--------|
D|-4------|-0---------0---0---2---|-3----------3----|-2-------------------|-0------|
A|--------|-----------------------|-----------------|------3----0----3----|--------|
E|--------|-----------------------|-----------------|---------------------|--------|

   H.     Q      W        H.     Q      W        W        H     H       H     H
E|-------------|--------|-------------|--------|--------|-------------|-------------|
B|-------------|--------|-------------|--------|--------|-------------|-------------|
G|-------------|--------|-------------|--------|--------|-------------|-------0-----|
D|-------------|-0------|-------------|--------|--------|-------------|-2-----------|
A|--------3----|--------|--------3----|-3------|--------|-0-----3-----|-------------|
E|-------------|--------|-------------|--------|--------|-------------|-------------|

   W        H     E   E   E   E     H     Q    Q      Q    Q    Q    Q      W
E|--------|-----------------------|-----------------|---------------------|--------|
B|--------|-----------------------|-----------------|---------------------|--------|
G|--------|-----------------------|-------0---------|---------------------|--------|
D|-4------|-0---------0---0---2---|-3----------3----|-2-------------------|-0------|
A|--------|-----------------------|-----------------|------3----0----3----|--------|
E|--------|-----------------------|-----------------|---------------------|--------|

   H,     Q      W        H.     Q      W        W        Q    Q    Q    Q      Q    Q    Q    Q
E|-------------|--------|-------------|--------|--------|---------------------|---------------------|
B|-------------|--------|-------------|--------|--------|---------------------|---------------------|
G|-------------|--------|-------------|--------|--------|---------------------|-2----0---------0----|
D|-------------|-0------|-------------|--------|--------|-0----3----2----3----|-----------3---------|
A|--------3----|--------|--------3----|-3------|--------|---------------------|---------------------|
E|-------------|--------|-------------|--------|--------|---------------------|---------------------|

   H     H       W        Q    Q    Q    Q      Q    Q    Q    Q      W        W
E|-------------|--------|---------------------|---------------------|--------|--------|
B|-------------|--------|---------------------|---------------------|--------|--------|
G|-------------|--------|---------------------|-2----0---------0----|--------|--------|
D|-2-----------|--------|-0----3----2----3----|-----------3---------|-2------|--------|
A|-------3-----|--------|---------------------|---------------------|--------|--------|
E|-------------|--------|---------------------|---------------------|--------|--------|

   Q    Q    Q    Q      Q    Q    Q    Q      H     H       W        Q    Q    Q    Q
E|---------------------|---------------------|-------------|--------|---------------------|
B|---------------------|-0-------------------|-------------|--------|---------------------|
G|------0---------0----|------2----0----2----|-------------|--------|------0---------0----|
D|-2---------4---------|---------------------|-4-----0-----|--------|-2---------4---------|
A|---------------------|---------------------|-------------|--------|---------------------|
E|---------------------|---------------------|-------------|--------|---------------------|

   Q    Q    Q    Q      Q    Q    Q    Q      Q    Q    Q    Q      H     Q    Q
E|---------------------|---------------------|-0-------------------|-----------------|
B|-0-------------------|------1----0----1----|------3----1----3----|-0-----0----1----|
G|------2----0----2----|-2-------------------|---------------------|-------4----5----|
D|---------------------|---------------------|---------------------|-----------------|
A|---------------------|---------------------|---------------------|-----------------|
E|---------------------|---------------------|---------------------|-----------------|

   H.     E   S  S    W
E|------------------|--------|
B|-3----------3-O1--|-0------|
G|-6----------6-O5--|O4------|
D|------------------|--------|
A|------------------|--------|
E|------------------|--------|


The last few measures with notes on more than one line
are just two alternative ways to play the last few notes.

1 comment on Main Theme

Nice tab, good warm up

5

Nice tab, good warm up exercise.