Login or Register to remove this ad. | Advertise Here

Main Theme (Final Fantasy IV) Guitar Tab

Submitted: Jul 20, 2009 by SpiderTemplarius (Last updated: Sep 18, 2009)

5
Average: 5 (14 votes)
Download | Listen
Game: Final Fantasy IV
Composer(s): Nobuo Uematsu
Style: Arrangement, Fingerstyle
Series: Final Fantasy

AutoScroll: Slow | Medium | Fast
                                                       Final Fantasy IV Main Theme                                 

Composed by Nobuo Uematsu

Arranged by SpiderTemplarius

     E  E  E  E  E  E  E  E     E  E  E  E  E  E  E  E     E  E  E  E  E  E  E  E   
E||--------------------------|--------------------------|--------------------------|
B||-----------1--------1-----|--------------------------|-----------1--------1-----|
G||--------2-----2--------2--|-----------0--------0-----|--------2-----2--------2--|
D||-----2-----------2--------|--------0-----0--------0--|-----2-----------2--------|
A||--0-----------------------|-----2-----------2--------|--0-----------------------|
E||--------------------------|--3-----------------------|--------------------------|


  E  E  E  E  E  E  E  E     E  E  E  E  E  E  E  E     E  E  E  E  E  E  E  E   
--------------------------|-----------5--------5-----|--------------------------|
-----------3--------3-----|--------5-----5--------5--|-----------3--------3-----|
--------0-----0--------0--|-----5-----------5--------|--------0-----0--------0--|
-----0-----------0--------|--------------------------|-----0-----------0--------|
--2-----------------------|--0-----------------------|--2-----------------------|
--------------------------|--------------------------|--------------------------|


  E  E  E  E  E  E  E  E     E  E  E  E  H             E  E  E  E  E  E  E  E   
--------------------------|--------------0--------||---------------------------|
--------------------------|-----------1-----------||---------------1-----------|
--------0-----------0-----|--------2--------------||*--2--------------2-----2--|
-----2-----2-----2-----2--|-----2-----------------||*-----2-----2--------2-----|
--3-----------2-----------|--0--------------------||---------0-----------------|
--------------------------|-----------------------||---------------------------|


  E  E  E  E  E  E  E  E     E  E  E  E  E  E  E  E     E  E  E  E  E  E  E  E   
--0-----------3-----------|--2--------2--------2-----|-----------------------0--|
-----1-----1-----1-----1--|-----3--------3--------3--|--3--------3--------3-----|
--------2-----------2-----|--------2--------2--------|-----2--------2-----------|
--------------------------|--0-----------------------|--------0--------0--------|
--------------------------|--------------------------|--0-----------------------|
--------------------------|--------------------------|--------------------------|


  E  E  E  E  E  E  E  E     E  E  E  E  E  E  E  E     E  E  E  E  E  E  E  E   
--1-----------3-----1-----|--0-----------------------|--------------------------|
-----1-----1-----1-----1--|-----1--------------1-----|--3--------3--------3-----|
--------2-----------------|--------2-----2--------2--|-----3--------3--------3--|
--3-----------------------|-----------2-----2--------|--------3--------3--------|
--------------------------|--0-----------------------|--1-----------------------|
--------------------------|--------------------------|--------------------------|


  H.           Q       E  E  E  E  E  E  E  E     H.           Q     
--------------------|--------------------------|--------------------|
--3------------1----|--3--------3--------3-----|--3------------1----|
--------------------|-----0--------0--------0--|--------------------|
--------------------|--------0--------0--------|--------------------|
--1-----------------|--------------------------|--------------------|
--------------------|--3-----------------------|--3-----------------|


  E  E  E  E  E  E  E  E     W                      E  E  E  E  E  E  E  E   
--------------------------|--------------------||---------1-----0-----1-----|
--1--------1--------1-----|--1-----------------||---3-----------------------|
-----0--------0--------0--|-------------------*||*-----3-----3-----3-----3--|
--------2--------2--------|-------------------*||*--------------------------|
--3-----------------------|--3-----------------||---1-----------------------|
--------------------------|--------------------||---------------------------|

                           1st Ending-------------------------------------------- 
  E  E  E  E  E  E  E  E     E  E  E  E  E  E  E  E     E  E  E  E  E  E  E  E     
--5-----3-----------3-----|--0-----------0-----------|--------------0------------||
--------------6-----------|-----1-----1-----1--------|-----------1-----1---------||
-----3-----3-----3-----3--|--------2-----------2-----|--------2-----------2-----*||
--3-----------------------|-----------------------2--|-----2-----------------2--*||
--------------------------|--0-----------------------|--0------------------------||
--------------------------|--------------------------|---------------------------||

2nd Ending-------------------------------------------
  E  E  E  E  E  E  E  E     E  E  E  E  E  E  E  E     E  E  E  E  E  E  E  E   
--5-----------8-----------|--7-----------5-----------|--------3-----2-----3-----|
-----------5-----5--------|-----5-----------5--------|--5-----------------------|
--------5-----------5-----|--------5-----------5-----|-----5-----5-----5-----5--|
-----7-----------------7--|-----------7-----------7--|--------------------------|
--0-----------------------|--------------------------|--3-----------------------|
--------------------------|--------------------------|--------------------------|


  E  E  E  E  E  E  E  E     E  E  E  E  E  E  E  E     E  E  E  E  E  E  E  E   
--7-----5-----------5-----|--2--------2--------2-----|--------------------------|
--------------8-----------|-----3--------3--------3--|--3--------3--------3-----|
-----5-----5-----5-----5--|--------2--------2--------|-----2--------2--------2--|
--5-----------------------|--0-----------------------|--------0--------0--------|
--------------------------|--------------------------|--0-----------------------|
--------------------------|--------------------------|--------------------------|


  E  E  E  E  E  E  E  E     E  E  E  E  E  E  E  E     E  E  E  E  E  E  E  E   
--------------------------|--------------------------|--------------------------|
--------------------------|--0-----------------------|--------1-----0-----1-----|
--------0-----------0-----|--------2-----0-----2-----|--2-----------------------|
--2-----------4-----------|-----2-----2-----2-----2--|-----3-----3-----3-----3--|
-----3-----3-----3-----3--|--3-----------------------|--------------------------|
--0-----------------------|--------------------------|--1-----------------------|


  E  E  E  E  E  E  E  E     E  E  E  E  E  E  E  E     E  E  E  E  E  E  E  E   
--0-----------------------|--------------------------|--------------------------|
--------3-----1-----3-----|--0--------0--------0-----|--3--------3--------3-----|
--------------------------|-----1--------1--------1--|-----4--------4--------4--|
-----3-----3-----3-----3--|--------2--------2--------|--------5--------5--------|
--------------------------|-----------2--------------|-----------5--------------|
--1-----------------------|--0-----------------------|--3-----------------------|


  E  E  E  E  E  E  E  E     E  E  E  E  E  E  E  E     E  E  E  E  E  E  E  E   
--------------------------|-----------------------0--|--------------------------|
--0--------0--------0-----|--0-----------------0-----|--------------1-----------|
-----2--------2--------2--|-----1-----------1--------|--2--------------2-----2--|
--------2--------2--------|--------2-----2-----------|-----2-----2--------2-----|
-----------2--------------|-----------2--------------|--------0-----------------|
--0-----------------------|--0-----------------------|--------------------------|


  E  E  E  E  E  E  E  E     E  E  E  E  E  E  E  E     E  E  E  E  E  E  E  E   
--0-----------3-----------|--2--------2--------2-----|-----------------------0--|
-----1-----1-----1-----1--|-----3--------3--------3--|--3--------3--------3-----|
--------2-----------2-----|--------2--------2--------|-----2--------2-----------|
--------------------------|--0-----------------------|--------0--------0--------|
--------------------------|--------------------------|--0-----------------------|
--------------------------|--------------------------|--------------------------|


  E  E  E  E  E  E  E  E     E  E  E  E  E  E  E  E     E  E  E  E  E  E  E  E   
--1-----------3-----1-----|--0-----------------------|--------------------------|
-----1-----1-----1-----1--|-----1--------------1-----|--3--------3--------3-----|
--------2-----------------|--------2-----2--------2--|-----3--------3--------3--|
--3-----------------------|-----------2-----2--------|--------3--------3--------|
--------------------------|--0-----------------------|--1-----------------------|
--------------------------|--------------------------|--------------------------|


  H.           Q       E  E  E  E  E  E  E  E     H.           Q     
--------------------|--------------------------|--------------------|
--3------------1----|--3--------3--------3-----|--3------------1----|
--------------------|-----0--------0--------0--|--------------------|
--------------------|--------0--------0--------|--------------------|
--1-----------------|--------------------------|--------------------|
--------------------|--3-----------------------|--3-----------------|


  E  E  E  E  E  E  E  E     W                  
--------------------------|-------------------||
--1--------1--------1-----|--1----------------||
-----0--------0--------0--|--0----------------||
--------2--------2--------|--2----------------||
--3-----------------------|--3----------------||
--------------------------|-------------------||




Duration Legend
---------------
W - whole
H - half
Q - quarter
E - 8th
L - tied note

13 comments on Main Theme

I really like this,

5

I really like this, spidertemplarius. I like how you made it your own, but it has that definite familiarity. The intro is pretty interesting :)

I heard the 'Guitar Solo

I heard the 'Guitar Solo Official Best Collection' version of Main Theme but for me it was incomplete, then making my arrangement I tried to fulfill it with some arpeggios.

About the intro - there was some intro in original version, but it was rather like made for piano, so it sounds a bit weirdo for me, then I made another intro, based on original intro's chords and fun to play :)

Love it!

5

I love the sound of this. Definitely going to try it when I get home today. :)

I'm glad you like it. Btw

I'm glad you like it.
Btw your 'Ronfaure' tab is one of my favorites ^^

GTYNP'd

5

GTYNP'd

Wow that's... really

Wow that's... really unexpected. Thanks Archard ^^

eyyyyy this is pretty cool ^^

5

eyyyyy this is pretty cool ^^

is it just me

or is their no audio on the gp5?

no

nvm something is wrong with my guitar pro...

Awesome.

I'm working on learning to play arrangements, I'll definitely have to add this to my list.

Lovely

5

The music from Final Fantasy has always held a special appeal to me. I remember playing this game when I was little. The story was unlike anything I'd played before, epic, you know, and the music perfectly matched the overall feel of the game perfectly. Golbez's Theme was always one of my favorites, but I *might* have let the opening theme run a few times. ;). Every time we went to the local movie store, I wanted to rent this game until I beat it. Anyway, enough, very nice tab. I'll be playing this often, I bet. =)

MTM (Brandon)

I think a lot of gametabs

I think a lot of gametabs users feel the same way (including me) :)
Thanks for your comment.

A gem! I might work this up.

5

A gem!

I might work this up. I think I would change measure 14 like this:

  E  E  E  E  E  E  E  E    
|--0-----------------------|
|--------1-----------1-----|
|-----2--------2--------2--|
|-----------2-----2--------|
|--0-----------------------|
|--------------------------|

...So that the melody always falls on the correct beat.