Login or Register to remove this ad. | Advertise Here

Long Way to Go (Final Fantasy IV) Bass/Guitar Tab

Submitted: May 04, 2011 by hashel (Last updated: Aug 25, 2011)

5
Average: 5 (1 vote)
Download | Listen
Game: Final Fantasy IV
Composer(s): Nobuo Uematsu
Style: 2 or more instruments, Arrangement
Series: Final Fantasy

Click here for a video example.

AutoScroll: Slow | Medium | Fast
A Long Way To Go


                                                                     Original Melody : Nobuo Uematsu

Melody



             W                   W                   W                   W
E||-------|-------------------|-------------------|-------------------|-------------------|
B||-------|-------------------|-------------------|-------------------|-------------------|
G||-------|-------------------|-------------------|-------------------|-------------------|
D||-------|-------------------|-------------------|-------------------|-------------------|
A||-------|-------------------|-------------------|-------------------|-------------------|
E||-------|-------------------|-------------------|-------------------|-------------------|


    Q    E   E   H           E   E   E  E   H            Q     E   E   Q     Q
|---------------10--------|--9p--7------9p--7--------|----------------14----12----|
|--------8--12------------|---------10---------------|--------12--15--------------|
|*--9---------------------|--------------------------|--12------------------------|
|*------------------------|--------------------------|----------------------------|
|-------------------------|--------------------------|----------------------------|
|-------------------------|--------------------------|----------------------------|


   Q     E   S   S  Q.      E      Q     E   S   S  H            Q     E   E   Q.      E
--------12--14p-12-------------|-----------------------------|----------------14----------|
--15---------------14------10--|--------10--12p-10-----------|--------12--15----------15--|
-------------------------------|--12---------------11--------|--12------------------------|
-------------------------------|-----------------------------|----------------------------|
-------------------------------|-----------------------------|----------------------------|
-------------------------------|-----------------------------|----------------------------|


   H.            T   T   S  E      W                   Q    E   E   H
--12------------12h-14p-12-----|--12----------------|--------------10--------|
---------------------------15--|--------------------|-------8--12------------|
-------------------------------|--------------------|--9---------------------|
-------------------------------|--------------------|------------------------|
-------------------------------|--------------------|------------------------|
-------------------------------|--------------------|------------------------|


  E   E   E  E   H            Q     E   E   Q     Q        Q     E   S   S  Q.      E
--9p--7------9p--7--------|----------------14----12----|--------12--14p-12-------------|
---------10---------------|--------12--15--------------|--15---------------14------10--|
--------------------------|--12------------------------|-------------------------------|
--------------------------|----------------------------|-------------------------------|
--------------------------|----------------------------|-------------------------------|
--------------------------|----------------------------|-------------------------------|


   Q     E   S   S  H            Q     E   E   Q.      E      H.            T   T   S  E
-----------------------------|----------------14----------|--12------------12h-14p-12-----|
--------10--12p-10-----------|--------12--15----------15--|---------------------------15--|
--12---------------11--------|--12------------------------|-------------------------------|
-----------------------------|----------------------------|-------------------------------|
-----------------------------|----------------------------|-------------------------------|
-----------------------------|----------------------------|-------------------------------|


   W                     Q    H.
--12-----------------||--------------------|-------||
---------------------||--------------------|-------||
--------------------*||--------------------|-------||
--------------------*||--------------------|-------||
---------------------||--------------------|-------||
---------------------||--------------------|-------||




Harmony



             Q    E  E  E  E  E  E     Q    E  E  E  E  E  E     Q    E  E  E  E  E  E
E||-------|-------------------------|-------------------------|-------------------------|
B||-------|-------------------------|-------------------------|-------------------------|
G||-------|-------0-----------------|-------0--------2--2-----|-------0-----------------|
D||-------|--2-------2--4--------4--|--2-------2--4--------4--|--2-------2--4--------4--|
A||-------|----------------5--0-----|-------------------------|----------------5--0-----|
E||-------|-------------------------|-------------------------|-------------------------|


  Q    E  E  E  E  E  E       Q    E  E  E  E  E  E     Q    E  E  E  E  E  E
-------------------------||--------------------------|-------------------------|
-------------------------||--------------------------|-------------------------|
-------0--------2--2-----||*-------0-----------------|-------0--------2--2-----|
--2-------2--4--------4--||*--2-------2--4--------4--|--2-------2--4--------4--|
-------------------------||-----------------5--0-----|-------------------------|
-------------------------||--------------------------|-------------------------|


  Q    E  E  E  E  E  E     Q    E  E  E  E  E  E     Q    E  E  E  E  E  E
-------------------------|-------------------------|-------------------------|
-------------------------|-------------------------|-------------------------|
-------0-----------------|-------0--------2--2-----|-------0-----------------|
--2-------2--4--------4--|--2-------2--4--------4--|--2-------2--4--------4--|
----------------5--0-----|-------------------------|----------------5--0-----|
-------------------------|-------------------------|-------------------------|


  Q    E  E  E  E  E  E     Q    E  E  E  E  E  E     Q    E  E  E  E  E  E
-------------------------|-------------------------|-------------------------|
-------------------------|-------------------------|-------------------------|
-------0--------2--2-----|-------0-----------------|-------0--------2--2-----|
--2-------2--4--------4--|--2-------2--4--------4--|--2-------2--4--------4--|
-------------------------|----------------5--0-----|-------------------------|
-------------------------|-------------------------|-------------------------|


  E  S S S S S S E  S S S S S S    E  S S S S S S E  S S S S S S    E  S S S S S S E  S S S S S S
---------0----------------------|---------0--------------2-------|---------0----------------------|
-------0---0------------3---3---|-------0---0----------2---2-----|-------0---0------------3---3---|
-----0-------0--------2---2---2-|-----0-------0------2-------2---|-----0-------0--------2---2---2-|
--2------------2-0--4-----------|--2------------2-4------------4-|--2------------2-0--4-----------|
--------------------------------|--------------------------------|--------------------------------|
--------------------------------|--------------------------------|--------------------------------|


  E  S S S S S S E  S S S S S S    E  S S S S S S E  S S S S S S    E  S S S S S S E  S S S S S S
---------0--------------2-------|---------0----------------------|---------0--------------2-------|
-------0---0----------2---2-----|-------0---0------------3---3---|-------0---0----------2---2-----|
-----0-------0------2-------2---|-----0-------0--------2---2---2-|-----0-------0------2-------2---|
--2------------2-4------------4-|--2------------2-0--4-----------|--2------------2-4------------4-|
--------------------------------|--------------------------------|--------------------------------|
--------------------------------|--------------------------------|--------------------------------|


                                                                      ^
  E  S S S S S S E  S S S S S S    E  S S S S S S E  S S S S S S      H        H
---------0----------------------|---------0--------------2--------||--0-----------------|-------||
-------0---0------------3---3---|-------0---0----------2---2------||--0-----------------|-------||
-----0-------0--------2---2---2-|-----0-------0------2-------2---*||--0-----------------|-------||
--2------------2-0--4-----------|--2------------2-4------------4-*||--2-----------------|-------||
--------------------------------|---------------------------------||--------------------|-------||
--------------------------------|---------------------------------||--------------------|-------||




Rhythm



             Q    Q    S S Q    E     Q    Q    S S Q    E     Q    Q    S S Q    E
E||-------|------------------------|------------------------|------------------------|
B||-------|------------------------|------------------------|------------------------|
G||-------|------------------------|------------------------|------------------------|
D||-------|--5----5----4---4----4--|--5----5----7---7----7--|--5----5----4---4----4--|
A||-------|--7----7----5---5----5--|--7----7----7---7----7--|--7----7----5---5----5--|
E||-------|--7----7----5---5----5--|--7----7----9---9----9--|--7----7----5---5----5--|


  Q    Q    S S Q    E       Q    E  S S S S E  E  S S    Q    E  S S S S E  E  S S
------------------------||-----------------------------|----------------------------|
------------------------||-----------------------------|----------------------------|
------------------------||*----------------------------|----------------------------|
--5----5----7---7----7--||*--5----5--x-x-x-x-4--4--x-x-|--5----5--x-x-x-x-7--7--x-x-|
--7----7----7---7----7--||---7----7--x-x-x-x-5--5--x-x-|--7----7--x-x-x-x-7--7--x-x-|
--7----7----9---9----9--||---7----7--x-x-x-x-5--5--x-x-|--7----7--x-x-x-x-9--9--x-x-|


  Q    E  S S S S E  E  S S    Q    E  S S S S E  E  S S    Q    E  E  E  E  S S S S
----------------------------|----------------------------|---------------------------|
----------------------------|----------------------------|---------------------------|
----------------------------|----------------------------|---------------------------|
--5----5--x-x-x-x-4--4--x-x-|--5----5--x-x-x-x-7--7--x-x-|--5----5--5--4--4--4-4-4-4-|
--7----7--x-x-x-x-5--5--x-x-|--7----7--x-x-x-x-7--7--x-x-|--7----7--7--5--5--5-5-5-5-|
--7----7--x-x-x-x-5--5--x-x-|--7----7--x-x-x-x-9--9--x-x-|--7----7--7--5--5--5-5-5-5-|


  Q    E  E  E  E  S S S S    Q    E  E  E  E  S S S S    Q    E  E  E  E  S S S S
---------------------------|---------------------------|---------------------------|
---------------------------|---------------------------|---------------------------|
---------------------------|---------------------------|---------------------------|
--5----5--5--7--7--7-7-7-7-|--5----5--5--4--4--4-4-4-4-|--5----5--5--7--7--7-7-7-7-|
--7----7--7--7--7--7-7-7-7-|--7----7--7--5--5--5-5-5-5-|--7----7--7--7--7--7-7-7-7-|
--7----7--7--9--9--9-9-9-9-|--7----7--7--5--5--5-5-5-5-|--7----7--7--9--9--9-9-9-9-|


  PM PM PM PM PM PM PM PM        PM PM PM      PM PM PM PM PM PM PM        PM PM PM
  S  S  S  S  S  S  S  S  E.  E  S  S  S     S S  S  S  S  S  S  S  E.  E  S  S  S
------------------------------------------|-----------------------------------------|
------------------------------------------|-----------------------------------------|
------------------------------------------|-----------------------------------------|
--------5--------5--------4---4--------5--|-------5--------5--------7---7--------5--|
--------7--------7--------5---5--------7--|-------7--------7--------7---7--------7--|
--7--7-----7--7-----7--7--5---5--7--7-----|--7-7-----7--7-----7--7--9---9--7--7-----|


  PM PM PM PM PM PM PM PM        PM PM PM      PM PM PM PM PM PM PM        PM PM PM
  S  S  S  S  S  S  S  S  E.  E  S  S  S     S S  S  S  S  S  S  S  E.  E  S  S  S
------------------------------------------|-----------------------------------------|
------------------------------------------|-----------------------------------------|
------------------------------------------|-----------------------------------------|
--------5--------5--------4---4--------5--|-------5--------5--------7---7--------5--|
--------7--------7--------5---5--------7--|-------7--------7--------7---7--------7--|
--7--7-----7--7-----7--7--5---5--7--7-----|--7-7-----7--7-----7--7--9---9--7--7-----|


  PM PM PM PM PM PM PM PM        PM PM PM      PM PM PM PM PM PM PM        PM PM PM
  S  S  S  S  S  S  S  S  E.  E  S  S  S     S S  S  S  S  S  S  S  E.  E  S  S  S
------------------------------------------|-----------------------------------------|
------------------------------------------|-----------------------------------------|
------------------------------------------|-----------------------------------------|
--------5--------5--------4---4--------5--|-------5--------5--------7---7--------5--|
--------7--------7--------5---5--------7--|-------7--------7--------7---7--------7--|
--7--7-----7--7-----7--7--5---5--7--7-----|--7-7-----7--7-----7--7--9---9--7--7-----|


  PM PM PM PM PM PM PM PM        PM PM PM      PM PM PM PM PM PM PM        PM PM PM
  S  S  S  S  S  S  S  S  E.  E  S  S  S     S S  S  S  S  S  S  S  E.  E  S  S  S       H
------------------------------------------|------------------------------------------||-----------|
------------------------------------------|------------------------------------------||-----------|
------------------------------------------|-----------------------------------------*||-----------|
--------5--------5--------4---4--------5--|-------5--------5--------7---7--------5--*||--5--------|
--------7--------7--------5---5--------7--|-------7--------7--------7---7--------7---||--7--------|
--7--7-----7--7-----7--7--5---5--7--7-----|--7-7-----7--7-----7--7--9---9--7--7------||--7--------|


-------||
-------||
-------||
-------||
-------||
-------||




Bass Line



             Q    Q    S S Q    E     Q    Q    S S Q    E     Q    Q    S S Q    E
G||-------|------------------------|------------------------|------------------------|
D||-------|------------------------|------------------------|------------------------|
A||-------|------------------------|------------------------|------------------------|
E||-------|--0----0----------------|--0----0----2---2----2--|--0----0----------------|
B||-------|------------3---3----3--|------------------------|------------3---3----3--|


  Q    Q    S S Q    E       Q    Q    S S Q    E     Q    Q    S S Q    E
------------------------||-------------------------|------------------------|
------------------------||*------------------------|------------------------|
------------------------||-------------------------|------------------------|
--0----0----2---2----2--||*--0----0----------------|--0----0----2---2----2--|
------------------------||-------------3---3----3--|------------------------|


  Q    Q    S S Q    E     Q    Q    S S Q    E     Q    Q    S S Q    E     Q    Q    S S Q    E
------------------------|------------------------|------------------------|------------------------|
------------------------|------------------------|------------------------|------------------------|
------------------------|------------------------|------------------------|------------------------|
--0----0----------------|--0----0----2---2----2--|--0----0----------------|--0----0----2---2----2--|
------------3---3----3--|------------------------|------------3---3----3--|------------------------|


  Q    Q    S S Q    E     Q    Q    S S Q    E     Q    Q    S S Q    E     Q    Q    S S Q    E
------------------------|------------------------|------------------------|------------------------|
------------------------|------------------------|--2----2----0---0----0--|--2----2----4---4----4--|
------------------------|------------------------|------------------------|------------------------|
--0----0----------------|--0----0----2---2----2--|------------------------|------------------------|
------------3---3----3--|------------------------|------------------------|------------------------|


  Q    Q    S S Q    E     Q    Q    S S Q    E     Q    Q    S S Q    E     Q    Q    S S Q    E
------------------------|------------------------|------------------------|------------------------|
--2----2----0---0----0--|--2----2----4---4----4--|--2----2----0---0----0--|--2----2----4---4----4--|
------------------------|------------------------|------------------------|------------------------|
------------------------|------------------------|------------------------|------------------------|
------------------------|------------------------|------------------------|------------------------|


  Q    Q    S S Q    E     Q    Q    S S Q    E       H        H
------------------------|-------------------------||--------------------|-------||
--2----2----0---0----0--|--2----2----4---4----4--*||--2-----------------|-------||
------------------------|-------------------------||--------------------|-------||
------------------------|------------------------*||--------------------|-------||
------------------------|-------------------------||--------------------|-------||




Duration Legend
---------------
W - whole
H - half
Q - quarter
E - 8th
S - 16th
T - 32nd
. - note dotted
|-n-|  - n-tuplets


Tablature Legend
----------------
L - tied note
x - dead note
h - hammer on
p - pull off
^ - brush up
PM - palm mute


Thanks to Auriplane for helping me =D

1 comment on Long Way to Go

beautiful job Hash :)

5

beautiful job Hash :)