Login or Register to remove this ad. | Advertise Here

Long Way to Go (Final Fantasy IV) Guitar Tab

Submitted: Jun 11, 2010 by Ranulf (Last updated: Nov 03, 2010)

0
Download | Listen
Game: Final Fantasy IV
Composer(s): Nobuo Uematsu
Style: Alternate picking, Transcription
Series: Final Fantasy

AutoScroll: Slow | Medium | Fast
Long Way to Go - Final Fantasy IV
Tabbed by Ranulf
Composed by Nobuo Uematsu

          ------------
             RHYTHM
          ------------

e|--------------------------------------|
B|--------------------------------------|
G|--9---9--9-7-7--7--9---9--9-11-11--11-|
D|--9---9--9-7-7--7--9---9--9-11-11--11-| Repeat throughout out the whole song
A|--7---7--7-5-5--5--7---7--7-9--9---9--|
E|--------------------------------------|

          ----------
             LEAD
          ----------

e|-------------------------------------------------14-12------12-14----|
B|-----------12-15----14--12-10-14-12-------12-15---------15--------14-|
G|-------12-----------------------------12-----------------------------|
D|--14-----------------------------------------------------------------|
A|---------------------------------------------------------------------|
E|---------------------------------------------------------------------|

e|------------------------------10-14---10-12-----14-12-10--12-|
B|--10------10-12------------12--------------------------------|
G|-----12---------11---11-12-----------------------------------|
D|-------------------------------------------------------------|
A|-------------------------------------------------------------|
E|-------------------------------------------------------------|