Login or Register to remove this ad. | Advertise Here

Land of Dwarves (Final Fantasy IV) Guitar Tab

Submitted: Nov 05, 2009 by auriplane (Last updated: Nov 05, 2009)

5
Average: 5 (2 votes)
Download | Listen
Game: Final Fantasy IV
Composer(s): Nobuo Uematsu
Style: 2 or more instruments, Alternate picking, Transcription
Series: Final Fantasy

AutoScroll: Slow | Medium | Fast
              Final Fantasy IV (SNES) - Land of Dwarves GUITAR TAB
                           Composed by Nobuo Uematsu

                     Tabbed by auriplane (crystal@panix.com)


There are four guitars:

        1st: Flute      . . . This is the melody.
        2nd: 1st Violin . . . Background strings and intro.
        3rd: 2nd Violin . . . Soprano part over the melody in the second half.
        4th: Viola      . . . Harmonizes the first violin.

The bass part can be found in a separate tab, which I already posted to GameTabs.
I moved the high string parts in the intro down an octave, but other than that,
this should be a literal transcription.

All guitars in standard tuning.



                                 Gtr I. - FLUTE


Rest for four measures at the beginning.

    H.             Q        H         H           W
|-----------------------|------------10--------|--9~----------------|
|-----------------------|--12------------------|--------------------|
|*--9~------------12----|----------------------|--------------------|
|*----------------------|----------------------|--------------------|
|-----------------------|----------------------|--------------------|
|-----------------------|----------------------|--------------------|


   H          E   E   E   E     H         Q    Q        Q     Q    Q     Q
-----------------------------|--8--------10----8----|-------------------------|
--10~---------L--10--10--12--|----------------------|--12---------------------|
-----------------------------|----------------------|--------12----9----12----|
-----------------------------|----------------------|-------------------------|
-----------------------------|----------------------|-------------------------|
-----------------------------|----------------------|-------------------------|


   H.             E   E      H.             E   E      W
-------------------------|-------------------------|---------------------|
--10~-------------L------|--10~-------------L------|---------------------|
---------------------12--|---------------------12--|--12~----------------|
-------------------------|-------------------------|---------------------|
-------------------------|-------------------------|---------------------|
-------------------------|-------------------------|---------------------|


   H.            Q        H        H            H        H
----------------------|------------8--------|------------8--------|
----------------------|--10-----------------|--12-----------------|
---L~-----------------|---------------------|---------------------|
----------------------|---------------------|---------------------|
----------------------|---------------------|---------------------|
----------------------|---------------------|---------------------|


   H.             Q       W                     H        H
-----------------------|--------------------|---------------------|
--11~------------10----|--8~----------------|------------9--------|
-----------------------|--------------------|--10-----------------|
-----------------------|--------------------|---------------------|
-----------------------|--------------------|---------------------|
-----------------------|--------------------|---------------------|


  H        H           H.             Q       W
--------------------|----------------------|--------------------|
--8--------9--------|--8~------------------|--------------------|
--------------------|----------------10----|--9~----------------|
--------------------|----------------------|--------------------|
--------------------|----------------------|--------------------|
--------------------|----------------------|--------------------|


   H        H            H        H            H.             Q
------------8--------|------------8--------|-----------------------|
--10-----------------|--12-----------------|--11~------------10----|
---------------------|---------------------|-----------------------|
---------------------|---------------------|-----------------------|
---------------------|---------------------|-----------------------|
---------------------|---------------------|-----------------------|


  W                     H.             Q       Q.      Q.     Q
--------------------|-----------------------|----------------------|
--8~----------------|--11~------------10----|--8-------------------|
--------------------|-----------------------|---------10------9----|
--------------------|-----------------------|----------------------|
--------------------|-----------------------|----------------------|
--------------------|-----------------------|----------------------|


   W                     H.            Q
---------------------|-----------------------||
--10~----------------|---L~------------------||
---------------------|----------------------*||
---------------------|----------------------*||
---------------------|-----------------------||
---------------------|-----------------------||



                                Gtr II. - 1ST VIOLIN



     E  E  E  E  E  E  E  E     E  E  E  E  E  E  E  E     E  E  E  E  E  E  E  E
E||--------------------2-----|--5--7--5--7--5--7--5--7--|--------------------3-----|
B||--------------3-----------|--------------------------|--------------5-----------|
G||--------4-----------------|--------------------------|--------6-----------------|
D||--5-----------------------|--------------------------|--7-----------------------|
A||--------------------------|--------------------------|--------------------------|
E||--------------------------|--------------------------|--------------------------|


  E  E  E  E  E  E  E  E       E  E  E  E  E  E  E  E     E  E  E  E  E  E  E  E
--5--9--5--9--5--9--5--9--||---------------------2-----|--5--7--5--7--5--7--5--7--|
--------------------------||---------------3-----------|--------------------------|
--------------------------||*--------4-----------------|--------------------------|
--------------------------||*--5-----------------------|--------------------------|
--------------------------||---------------------------|--------------------------|
--------------------------||---------------------------|--------------------------|


  E  E  E  E  E  E  E  E     E  E  E  E  E  E  E  E     H         Q     Q
--------------------3-----|--5--9--5--9--5--9--5--9--|-----------------------|
--------------5-----------|--------------------------|-----------------10----|
--------6-----------------|--------------------------|--9--------12----------|
--7-----------------------|--------------------------|-----------------------|
--------------------------|--------------------------|-----------------------|
--------------------------|--------------------------|-----------------------|


   H         H            W                    H         H
------------10--------|--------------------|--10------------------|
--12------------------|--13----------------|------------13--------|
----------------------|--------------------|----------------------|
----------------------|--------------------|----------------------|
----------------------|--------------------|----------------------|
----------------------|--------------------|----------------------|


   W                    W                    W                    W
--------------------|--------------------|--------------------|--------------------|
--12----------------|---L----------------|--10----------------|---L----------------|
--------------------|--------------------|--------------------|--------------------|
--------------------|--------------------|--------------------|--------------------|
--------------------|--------------------|--------------------|--------------------|
--------------------|--------------------|--------------------|--------------------|


   W                    W                    W                    W
--------------------|--------------------|--------------------|--------------------|
--------------------|--------------------|--------------------|--------------------|
--12----------------|---L----------------|--10----------------|---L----------------|
--------------------|--------------------|--------------------|--------------------|
--------------------|--------------------|--------------------|--------------------|
--------------------|--------------------|--------------------|--------------------|


   W                    W                    W                    W
--------------------|--------------------|--------------------|--------------------|
--------------------|--------------------|--10----------------|---L----------------|
--12----------------|---L----------------|--------------------|--------------------|
--------------------|--------------------|--------------------|--------------------|
--------------------|--------------------|--------------------|--------------------|
--------------------|--------------------|--------------------|--------------------|


   W                    W                    H.            Q
--------------------|--------------------|----------------------|
--------------------|--------------------|----------------10----|
--12----------------|---L----------------|--12------------------|
--------------------|--------------------|----------------------|
--------------------|--------------------|----------------------|
--------------------|--------------------|----------------------|


   W                    W                    W
--------------------|--------------------|---------------------||
--11----------------|--10----------------|---L-----------------||
--------------------|--------------------|--------------------*||
--------------------|--------------------|--------------------*||
--------------------|--------------------|---------------------||
--------------------|--------------------|---------------------||




                               Gtr III. - 2ND VIOLIN


Rest for fourteen measures (ten on repeat).

    Q     Q     Q     Q        W                    H.            Q
|--17----15----------------|--------------------|----------------------|
|--------------18----17----|--16----------------|---L------------15----|
|--------------------------|--------------------|----------------------|
|--------------------------|--------------------|----------------------|
|--------------------------|--------------------|----------------------|
|--------------------------|--------------------|----------------------|


   W                    H         Q     Q        H.            Q
--------------------|------------------------|----------------------|
--------------------|------------------16----|--17------------18----|
--18----------------|--17--------18----------|----------------------|
--------------------|------------------------|----------------------|
--------------------|------------------------|----------------------|
--------------------|------------------------|----------------------|


   W                   W                    Q     Q     Q     Q
--15----------------|-------------------|--17----15----------------|
--------------------|-------------------|--------------18----17----|
--------------------|-------------------|--------------------------|
--------------------|-------------------|--------------------------|
--------------------|-------------------|--------------------------|
--------------------|-------------------|--------------------------|


   W                    H.            Q        H.            Q
--------------------|----------------------|----------------------|
--16----------------|---L------------15----|----------------15----|
--------------------|----------------------|--18------------------|
--------------------|----------------------|----------------------|
--------------------|----------------------|----------------------|
--------------------|----------------------|----------------------|


   Q.      Q.      Q        W                    W
------------------15----|--15----------------|--14-----------------||
--17------18------------|--------------------|---------------------||
------------------------|--------------------|--------------------*||
------------------------|--------------------|--------------------*||
------------------------|--------------------|---------------------||
------------------------|--------------------|---------------------||




                                    Gtr. IV - VIOLA




     E  E  E  E  E  E  E  E     E  E  E  E  E  E  E  E     E  E  E  E  E  E  E  E
E||--------------------------|--2--3--2--3--2--3--2--3--|--------------------0-----|
B||--------------0-----3-----|--------------------------|--------------2-----------|
G||--------0-----------------|--------------------------|--0-----2-----------------|
D||--2-----------------------|--------------------------|--------------------------|
A||--------------------------|--------------------------|--------------------------|
E||--------------------------|--------------------------|--------------------------|


  E  E  E  E  E  E  E  E       E  E  E  E  E  E  E  E     E  E  E  E  E  E  E  E
--0--3--0--3--0--3--0--3--||---------------------------|--2--3--2--3--2--3--2--3--|
--------------------------||---------------0-----3-----|--------------------------|
--------------------------||*--------0-----------------|--------------------------|
--------------------------||*--2-----------------------|--------------------------|
--------------------------||---------------------------|--------------------------|
--------------------------||---------------------------|--------------------------|


  E  E  E  E  E  E  E  E     E  E  E  E  E  E  E  E     H        Q    Q
--------------------0-----|--0--3--0--3--0--3--0--3--|---------------------|
--------------2-----------|--------------------------|-----------5----7----|
--0-----2-----------------|--------------------------|--5------------------|
--------------------------|--------------------------|---------------------|
--------------------------|--------------------------|---------------------|
--------------------------|--------------------------|---------------------|


  H        Q    Q       W                   W                   W
---------------------|-------------------|-------------------|-------------------|
--8--------7----8----|--6----------------|-------------------|-------------------|
---------------------|-------------------|--8----------------|--7----------------|
---------------------|-------------------|-------------------|-------------------|
---------------------|-------------------|-------------------|-------------------|
---------------------|-------------------|-------------------|-------------------|


  W                   W                   W                   W
-------------------|-------------------|-------------------|-------------------|
-------------------|--6----------------|--L----------------|-------------------|
--L----------------|-------------------|-------------------|--8----------------|
-------------------|-------------------|-------------------|-------------------|
-------------------|-------------------|-------------------|-------------------|
-------------------|-------------------|-------------------|-------------------|


  W                   W                   W                   W
-------------------|-------------------|-------------------|-------------------|
-------------------|-------------------|-------------------|-------------------|
--L----------------|--6----------------|--L----------------|--5----------------|
-------------------|-------------------|-------------------|-------------------|
-------------------|-------------------|-------------------|-------------------|
-------------------|-------------------|-------------------|-------------------|


  W                   W                   W                   W
-------------------|-------------------|-------------------|-------------------|
-------------------|--6----------------|--L----------------|-------------------|
--L----------------|-------------------|-------------------|--8----------------|
-------------------|-------------------|-------------------|-------------------|
-------------------|-------------------|-------------------|-------------------|
-------------------|-------------------|-------------------|-------------------|


  W                   W                   Q.     Q.     Q       W
-------------------|-------------------|---------------------|-------------------|
-------------------|--5----------------|--5-------------5----|-------------------|
--L----------------|-------------------|---------6-----------|--7----------------|
-------------------|-------------------|---------------------|-------------------|
-------------------|-------------------|---------------------|-------------------|
-------------------|-------------------|---------------------|-------------------|


  W
--------------------||
--------------------||
--L----------------*||
-------------------*||
--------------------||
--------------------||




Duration Legend
---------------
W - whole
H - half
Q - quarter
E - 8th
S - 16th
. - note dotted


Tablature Legend
----------------
L - tied note
~ - vibrato

1 comment on Land of Dwarves

Nice job on this one. I love

5

Nice job on this one. I love this tune.