Login or Register to remove this ad. | Advertise Here

Land of Dwarves (Final Fantasy IV) Bass Tab

Submitted: Nov 02, 2009 by auriplane

0
Download | Listen
Game: Final Fantasy IV
Composer(s): Nobuo Uematsu
Style: Transcription
Series: Final Fantasy

AutoScroll: Slow | Medium | Fast
               Final Fantasy IV (SNES) - Land of Dwarves BASS TAB
                           Composed by Nobuo Uematsu
                 
                     Tabbed by auriplane (crystal@panix.com)


Four-string bass, standard tuning.  Rest for four measures at the beginning.



            Part A


   E  E  Q     E  E  E  E   E  E  E  E  H            
G |---------------7--6-----|------------------------|
D |---------------------7--|9--9--------------------|
A |7--7--------------------|------7--7--------------|
E |------------------------|------------------------|


   E  E  E  E  E  E  E  E   W                      
G |------------------6--6--|------------------------|
D |---7--5--5--------------|------------------------|
A |------------7--7--------|------------------------|
E |------------------------|------------------------|


   E  E  E  E  E  E  Q      E  E  Q     E  E  Q      
G |---------------9--------|------------------------|
D |10-10-------------12-\2-|2--2--------2--2--------|
A |------------------------|------------------------|
E |------8--8--------------|------------------------|


   E  E  E  E  H            E  E  Q     E  E  E  E   
G |------7--10-L-----------|---8--------7-----------|
D |0--7--------------------|------10-------8--L-----|
A |------------------------|---------------------8--|
E |------------------------|------------------------|


   H.                Q      W                        
G |------------------------|12----------------------|
D |------------------12----|------------------------|
A |10----------------------|------------------------|
E |------------------------|------------------------|


            Part B


   Q.       E  E  E  E  E   Q     E  E  E  E  E  E   
G |---------------12-L--9--|10-------------10-L--9--|
D |---------10-L-----------|------------------------|
A |8-----------------------|------8--8--L-----------|
E |------------------------|------------------------|


   Q.       Q.       Q      Q.       E  H                                                              
G |8-----------------------|8-----------------------|
D |------------------8-----|------------------------|
A |------------------------|------------------------|
E |---------11-------------|---------11-L-----------|

                                                 
   Q.       E  E  E  E  E   Q     E  E  E  E  E  E   
G |---------------8--L-----|------------------------|
D |---------------------10-|11-------------------11-|
A |---------11-L-----------|---------------11-L-----|
E |9-----------------------|------9--9--L-----------|


   Q.       E  Q.       E   Q.       E  E  E  E  E                                                    
G |------------------------|---------------7--L--9--|
D |10-------10-------------|---------10-L-----------|
A |------------10-------10-|------------------------|
E |------------------------|8-----------------------|

                                                             
            Part C


   Q.       E  E  E  E  E   Q     E  E  E  E  E  E   
G |---------------12-L--9--|10-------------10-L--9--|
D |---------10-L-----------|------------------------|
A |8-----------------------|------8--8--L-----------|
E |------------------------|------------------------|


   Q.       Q.       Q      Q.       E  H                                                               
G |8-----------------------|8-----------------------|
D |------------------8-----|------------------------|
A |------------------------|------------------------|
E |---------11-------------|---------11-L-----------|

                                                     
   Q.       Q.       Q      Q.       Q.       Q       
G |---------14-------------|------------------------|
D |------------------12----|14-------11-------------|
A |12----------------------|------------------12----|
E |------------------------|------------------------|


   H.                Q      Q.       E  E  E  Q      
G |------------------------|------------9-----------|
D |12----------------------|---------------10-------|
A |------------------12----|---------12-------9-----|
E |------------------------|10----------------------|


        Repeat back to Part A.