Login or Register to remove this ad. | Advertise Here

Kingdom Baron (Final Fantasy IV) Bass/Guitar Tab

Submitted: Oct 27, 2011 by hashel (Last updated: Oct 27, 2011)

0
Download | Listen
Game: Final Fantasy IV
Composer(s): Nobuo Uematsu
Style: 2 or more instruments, Transcription
Series: Final Fantasy

Click here for a video example.

AutoScroll: Slow | Medium | Fast
Plz download GP5 file for the other tracks =)

MELODY

E |----|--21-16---------------------|
B |----|--------16------------------|
G |----|-----------15---------------|
D |----|--------------15------------|
A |----|-----------------16-11------|
E |----|-----------------------11---|


----------------------------------------------------|
----------------------------------------------------|
----------------------------------------------------|
--10----------------------------------10-11-13-11---|
----------------------------------------------------|
----------------------------------------------------|


----------------------------------------------------|
----------------------------------------------------|
----------------------------------------------------|
--10------------------------------------------------|
--------------------------------------9--13-11-13---|
----------------------------------------------------|


----------------------------------------------------|
----------------------------------------------------|
----------------------------------------------------|
--10----------------------------------10-11-13-11---|
----------------------------------------------------|
----------------------------------------------------|


----------------------------------------------------||-------13------|
----------------------------------------------------||----13----13---|
----------------------------------------------------||o--------------|
--10------------------------------------------------||o--------------|
--------------------------------------9--13-11-13---||---------------|
----------------------------------------------------||---------------|


--16----18------|----------------------------------------------------|
-----13----13---|--12------------------------------------------------|
----------------|--------------------------------------3--4--6-------|
----------------|----------------------------------------------------|
----------------|----------------------------------------------------|
----------------|----------------------------------------------------|


----------------------------------------------------|--------13------|
----------------------------------------------------|-----13----13---|
--4-----------3--4--6-----4-----------3--4--6-------|----------------|
----------------------------------------------------|----------------|
----------------------------------------------------|----------------|
----------------------------------------------------|----------------|


--16----18------|----------------------------------------------------|
-----13----13---|--12------------------------------------------------|
----------------|--------------------------------------3--4--6-------|
----------------|----------------------------------------------------|
----------------|----------------------------------------------------|
----------------|----------------------------------------------------|


----------------------------------------------------|
----------------------------------------------------|
--4-----------3--4--6-----4-----------3--4--6-------|
----------------------------------------------------|
----------------------------------------------------|
----------------------------------------------------|


----------------------------------------------------|
----------------------------------------------------|
--7-----7--7--7-----6-----7-----------4-----6-------|
----------------------------------------------------|
----------------------------------------------------|
----------------------------------------------------|


----------------------------------------------------|----------|----------|
----------------------------------------------------|--5--7----|--8--7----|
--7-----------6-----9-----------7-----------4-------|----------|----------|
----------------------------------------------------|----------|----------|
----------------------------------------------------|----------|----------|
----------------------------------------------------|----------|----------|


----------------------------------------------------|
----------------------------------------------------|
--7-----7--7--7-----6-----7-----------4-----6-------|
----------------------------------------------------|
----------------------------------------------------|
----------------------------------------------------|


----------------------------------------------------|----------|----------|
----------------------------------------------------|--5--7----|--8--7----|
--7-----------6-----9-----------7-----------4-------|----------|----------|
----------------------------------------------------|----------|----------|
----------------------------------------------------|----------|----------|
----------------------------------------------------|----------|----------|


--------13------|--16----18------|
-----13----13---|-----13----13---|
----------------|----------------|
----------------|----------------|
----------------|----------------|
----------------|----------------|


----------------------------------------------------|
--12------------------------------------------------|
--------------------------------------3--4--6-------|
----------------------------------------------------|
----------------------------------------------------|
----------------------------------------------------|


----------------------------------------------------|--------13------|
----------------------------------------------------|-----13----13---|
--4-----------3--4--6-----4-----------3--4--6-------|----------------|
----------------------------------------------------|----------------|
----------------------------------------------------|----------------|
----------------------------------------------------|----------------|


--16----18------|----------------------------------------------------|
-----13----13---|--12------------------------------------------------|
----------------|--------------------------------------3--4--6-------|
----------------|----------------------------------------------------|
----------------|----------------------------------------------------|
----------------|----------------------------------------------------|


----------------------------------------------------|
----------------------------------------------------|
--4-----------3--4--6-----4-----------3--4--6-------|
----------------------------------------------------|
----------------------------------------------------|
----------------------------------------------------|


----------------------------------------------------|
----------------------------------------------------|
--7-----7--7--7-----6-----7-----------4-----6-------|
----------------------------------------------------|
----------------------------------------------------|
----------------------------------------------------|


----------------------------------------------------|----------|----------|
----------------------------------------------------|--5--7----|--8--7----|
--7-----------6-----9-----------7-----------4-------|----------|----------|
----------------------------------------------------|----------|----------|
----------------------------------------------------|----------|----------|
----------------------------------------------------|----------|----------|


----------------------------------------------------|
----------------------------------------------------|
--7-----7--7--7-----6-----7-----------4-----6-------|
----------------------------------------------------|
----------------------------------------------------|
----------------------------------------------------|


----------------------------------------------------|----------|---------|||
----------------------------------------------------|--5--7----|--8--7---|||
--7-----------6-----9-----------7-----------4-------|----------|--------o|||
----------------------------------------------------|----------|--------o|||
----------------------------------------------------|----------|---------|||
----------------------------------------------------|----------|---------|||


RHYTHM


E |----|----|----|----|----|----||
B |----|----|----|----|----|----||
G |----|----|----|----|----|----||
D |----|----|----|----|----|----||
A |----|----|----|----|----|----||
E |----|----|----|----|----|----||


---------------------------------------------------|
---------------------------------------------------|
o--------------------------------------------------|
o------6-----------5-----------6-----------3-------|
-------3-----------3-----------3-----------3-------|
---------------------------------------------------|


----------------------------------------------------|
----------------------------------------------------|
----------------------------------------------------|
--------6-----------5-----------6-----------3-------|
--------3-----------3-----------3-----------3-------|
----------------------------------------------------|


----------------------------------------------------|
----------------------------------------------------|
----------------------------------------------------|
--2-----------------------------------5--6--8-------|
--2-------------------------------------------------|
----------------------------------------------------|


----------------------------------------------------|
----------------------------------------------------|
----------------------------------------------------|
--6-----------5--6--8-----6-----------5--6--8-------|
----------------------------------------------------|
----------------------------------------------------|


----------------------------------------------------|
----------------------------------------------------|
----------------------------------------------------|
--------6-----------5-----------6-----------3-------|
--------3-----------3-----------3-----------3-------|
----------------------------------------------------|


----------------------------------------------------|
----------------------------------------------------|
----------------------------------------------------|
--------6-----------5-----------6-----------3-------|
--------3-----------3-----------3-----------3-------|
----------------------------------------------------|


----------------------------------------------------|
----------------------------------------------------|
----------------------------------------------------|
--2-----------------------------------5--6--8-------|
--2-------------------------------------------------|
----------------------------------------------------|


----------------------------------------------------|-------|----------------|
----------------------------------------------------|-------|----------------|
----------------------------------------------------|-------|----------------|
--6-----------5--6--8-----6-----------5--6--8-------|-------|----------------|
----------------------------------------------------|-------|----------------|
----------------------------------------------------|-------|----------------|


--12----------12----15----14----------12------------|
--------13----------------------------------13------|
-----------14---------------------------------------|
----------------------------------------------------|
----------------------------------------------------|
----------------------------------------------------|


--12----------12----15----14----------12------------|-------|----------------|
--------13------------------------------------------|-------|----------------|
-----------14---------------------------------------|-------|----------------|
----------------------------------------------------|-------|----------------|
----------------------------------------------------|-------|----------------|
----------------------------------------------------|-------|----------------|


--12----------12----15----14----------12------------|
--------13----------------------------------13------|
-----------14---------------------------------------|
----------------------------------------------------|
----------------------------------------------------|
----------------------------------------------------|


--12----------12----15----14----------12------------|
--------13------------------------------------------|
-----------14---------------------------------------|
----------------------------------------------------|
----------------------------------------------------|
----------------------------------------------------|


----------------------------------------------------|
----------------------------------------------------|
----------------------------------------------------|
--------6-----------5-----------6-----------3-------|
--------3-----------3-----------3-----------3-------|
----------------------------------------------------|


----------------------------------------------------|
----------------------------------------------------|
----------------------------------------------------|
--------6-----------5-----------6-----------3-------|
--------3-----------3-----------3-----------3-------|
----------------------------------------------------|


----------------------------------------------------|
----------------------------------------------------|
----------------------------------------------------|
--2-----------------------------------5--6--8-------|
--2-------------------------------------------------|
----------------------------------------------------|


----------------------------------------------------|
----------------------------------------------------|
----------------------------------------------------|
--6-----------5--6--8-----6-----------5--6--8-------|
----------------------------------------------------|
----------------------------------------------------|


----------------------------------------------------|
----------------------------------------------------|
----------------------------------------------------|
--------6-----------5-----------6-----------3-------|
--------3-----------3-----------3-----------3-------|
----------------------------------------------------|


----------------------------------------------------|
----------------------------------------------------|
----------------------------------------------------|
--------6-----------5-----------6-----------3-------|
--------3-----------3-----------3-----------3-------|
----------------------------------------------------|


----------------------------------------------------|
----------------------------------------------------|
----------------------------------------------------|
--2-----------------------------------5--6--8-------|
--2-------------------------------------------------|
----------------------------------------------------|


----------------------------------------------------|-------|----------------|
----------------------------------------------------|-------|----------------|
----------------------------------------------------|-------|----------------|
--6-----------5--6--8-----6-----------5--6--8-------|-------|----------------|
----------------------------------------------------|-------|----------------|
----------------------------------------------------|-------|----------------|


--12----------12----15----14----------12------------|
--------13----------------------------------13------|
-----------14---------------------------------------|
----------------------------------------------------|
----------------------------------------------------|
----------------------------------------------------|


--12----------12----15----14----------12------------|-------|----------------|
--------13------------------------------------------|-------|----------------|
-----------14---------------------------------------|-------|----------------|
----------------------------------------------------|-------|----------------|
----------------------------------------------------|-------|----------------|
----------------------------------------------------|-------|----------------|


--12----------12----15----14----------12------------|
--------13----------------------------------13------|
-----------14---------------------------------------|
----------------------------------------------------|
----------------------------------------------------|
----------------------------------------------------|


--12----------12----15----14----------12-----------|||
--------13-----------------------------------------|||
-----------14-------------------------------------o|||
--------------------------------------------------o|||
---------------------------------------------------|||
---------------------------------------------------|||


BASS


G |----|-------|----------------------------|----------------------------|
D |----|-------|----------------------------|----------------------------|
A |----|-------|--3-----3-----3-----3-------|--3-----3-----3-----3-------|
E |----|-------|----------------------------|----------------------------|


----------------------------|----------------------------||
----------------------------|----------------------------||
--3-----3-----3-----3-------|--3-----3-----3-----3-------||
----------------------------|----------------------------||


---------------------------|----------------------------|
o--------------------------|----------------------------|
o3-----3-----3-----3-------|--3-----3-----3-----3-------|
---------------------------|----------------------------|


----------------------------|----------------------------|
----------------------------|----------------------------|
--2-----2-----2-----2-------|--2-----2-----2-----2-------|
----------------------------|----------------------------|


----------------------------|----------------------------|
----------------------------|----------------------------|
--3-----3-----3-----3-------|--3-----3-----3-----3-------|
----------------------------|----------------------------|


----------------------------|----------------------------|
----------------------------|----------------------------|
--2-----2-----2-----2-------|--2-----2-----2-----2-------|
----------------------------|----------------------------|


----------------------------|----------------------------|
--0-----------0-------------|--0-----------0-------------|
----------------------------|----------------------------|
----------------------------|----------------------------|


----------------------------|----------------------------|
--2--------2--2-----2-------|--2--------2--2-----2-------|
----------------------------|----------------------------|
----------------------------|----------------------------|


----------------------------|----------------------------|
--0-----------0-------------|--0-----------0-------------|
----------------------------|----------------------------|
----------------------------|----------------------------|


----------------------------|----------------------------|
--2--------2--2-----2-------|--2--------2--2-----2-------|
----------------------------|----------------------------|
----------------------------|----------------------------|


----------------------------|----------------------------|
----------------------------|----------------------------|
--3-----3-----3-----3-------|--3-----3-----3-----3-------|
----------------------------|----------------------------|


----------------------------|----------------------------|
----------------------------|----------------------------|
--2-----2-----2-----2-------|--2-----2-----2-----2-------|
----------------------------|----------------------------|


----------------------------|----------------------------|
----------------------------|----------------------------|
--3-----3-----3-----3-------|--3-----3-----3-----3-------|
----------------------------|----------------------------|


----------------------------|----------------------------|
----------------------------|----------------------------|
--2-----2-----2-----2-------|--2-----2-----2-----2-------|
----------------------------|----------------------------|


----------------------------|----------------------------|
--0-----------0-------------|--0-----------0-------------|
----------------------------|----------------------------|
----------------------------|----------------------------|


----------------------------|----------------------------|
--2--------2--2-----2-------|--2--------2--2-----2-------|
----------------------------|----------------------------|
----------------------------|----------------------------|


----------------------------|----------------------------|
--0-----------0-------------|--0-----------0-------------|
----------------------------|----------------------------|
----------------------------|----------------------------|


----------------------------|---------------------------|||
--2--------2--2-----2-------|--2--------2--2-----2-----o|||
----------------------------|--------------------------o|||
----------------------------|---------------------------|||