Login or Register to remove this ad. | Advertise Here

Into The Darkness (Final Fantasy IV) Bass Tab

Submitted: Feb 14, 2010 by auriplane (Last updated: Jan 13, 2011)

4
Average: 4 (1 vote)
Download | Listen
Game: Final Fantasy IV
Composer(s): Nobuo Uematsu
Style: Transcription
Series: Final Fantasy

AutoScroll: Slow | Medium | Fast
                   Final Fantasy IV - Into The Darkness BASS TAB
                           Composed by Nobuo Uematsu

                      Tabbed by Auriplane (crystal@panix.com)



This is a bass tab to go with Ranulf's guitar tab for this song.

I made two versions for this.  The four-string version is the original, but it's 
fairly high in the bass register so I thought I'd also tab it an octave down on 
five-string.  It sounds pretty cool transposed down :D

Rest for two measures at the beginning.  (The song is in 6/8 time, so rest for
twelve beats.)



                               FOUR-STRING VERSION


G |------------------|---------11-------|------------------|---------8--------|
D |------10----------|------11----------|------10----------|------8-----------|
A |8--------8-8------|9-----------------|8--------8-8------|------------------|
E |------------------|------------------|------------------|11----------------|


G |------------------|---------11-------|------------------|---------8--------|
D |------10----------|------11----------|------10----------|------8-----------|
A |8--------8-8------|9-----------------|8--------8-8------|------------------|
E |------------------|------------------|------------------|11----------------|


G |---------------8--|------------------|---------8--------|------------------|
D |---------10-------|---------11-------|---------------10-|9-----------------|
A |11----------------|------------------|11----------------|---------10----12-|
E |------------------|11----------------|------------------|------------------|


G |------------------|---------14-13-12-|------------------|------------------|
D |9--------11-------|------11----------|9-----------------|9-----------------|
A |------------------|9-----------------|---------10----12-|------------------|
E |---------------9--|------------------|------------------|---------12-------|


G |------------------|------------------|
D |------------------|------------------|
A |9-----------------|L-----------------|
E |------------------|------------------|




                               FIVE-STRING VERSION
                                (one octave down)


G |------------------|------------------|------------------|------------------|
D |------------------|---------4--------|------------------|---------1--------|
A |------3-----------|------4-----------|------3-----------|------1-----------|
E |1--------1-1------|2-----------------|1--------1-1------|------------------|
B |------------------|------------------|------------------|4-----------------|


G |------------------|------------------|------------------|------------------|
D |------------------|---------4--------|------------------|---------1--------|
A |------3-----------|------4-----------|------3-----------|------1-----------|
E |1--------1-1------|2-----------------|1--------1-1------|------------------|
B |------------------|------------------|------------------|4-----------------|


G |------------------|------------------|------------------|------------------|
D |---------------1--|------------------|---------1--------|------------------|
A |---------3--------|---------4--------|---------------3--|2--------------0--|
E |4-----------------|------------------|4-----------------|---------3--------|
B |------------------|4-----------------|------------------|------------------|


G |------------------|------------------|------------------|------------------|
D |------------------|---------7--6--5--|------------------|------------------|
A |2--------4--------|------4-----------|2--------------0--|2-----------------|
E |------------------|2-----------------|---------3--------|---------0--------|
B |---------------2--|------------------|------------------|------------------|


G |------------------|------------------|
D |------------------|------------------|
A |------------------|------------------|
E |2-----------------|L-----------------|
B |------------------|------------------|