Login or Register to remove this ad. | Advertise Here

Into The Darkness (Final Fantasy IV) Guitar Tab

Submitted: Feb 14, 2010 by Ranulf (Last updated: Feb 14, 2010)

5
Average: 5 (3 votes)
Download | Listen
Game: Final Fantasy IV
Composer(s): Nobuo Uematsu
Style: Alternate picking, Transcription
Series: Final Fantasy

Click here for a video example.

AutoScroll: Slow | Medium | Fast
Into the Darkness - Final Fantasy IV
Tabbed by Ranulf
Composed by Nobuo Uematsu

(Standard Tuning)

|-----------13-12----11-9-----------------------|
|-----------------13------11-7-------13------11-|
|--10-12-13----------------------10-------8-----|
|-----------------------------------------------|
|-----------------------------------------------|
|-----------------------------------------------|

|-----------13-12----11-9-------------------------|
|-----------------13------11-7-------13-------14--|
|--10-12-13----------------------10-------11------|
|-------------------------------------------------|
|-------------------------------------------------|
|-------------------------------------------------|

|-----------11-9-----------------11-9-11-14--10--14--16-14-16-17-|
|-----11-13------11-7------11-13---------------------------------|
|--13-------------------13---------------------------------------|
|----------------------------------------------------------------|
|----------------------------------------------------------------|
|----------------------------------------------------------------|

|--14--10--14--16-14-16-18-|
|--------------------------|
|--------------------------|
|--------------------------|
|--------------------------|
|--------------------------|

Add slides and bends as you want

5 comments on Into The Darkness

Btw it is in standard tuning

Btw it is in standard tuning

i went ahead and put

i went ahead and put (standard tuning)so there wont be any confusion.

Thanks

Thanks man

Ahhhh...

5

Nice and refreshing...I love this song.

Great tune!

5

And great tab! Awesome!