Login or Register to remove this ad. | Advertise Here

Illusionary World (Final Fantasy IV) Guitar Tab

Submitted: Jun 25, 2010 by Daugreano

0
Download | Listen
Game: Final Fantasy IV
Composer(s): Nobuo Uematsu
Style: Transcription
Series: Final Fantasy

AutoScroll: Slow | Medium | Fast
Song: Illusionary World
Game: Final Fantasy IV
Composer: Nobuo Uematsu	
Tabbed by: Daugreano


Guitar: 
   
   Q.    Q    E     Q.    Q    E     H.       Q.    Q.      H.       H.       H.
E|----------------|----------------|--------|-------------|--------|--------|--------|
B|----------------|------------8---|--------|-------------|--------|--------|--------|
G|-9-----9----9---|-9-----10-------|-9------|-------7-----|-9------|--------|--------|
D|----------------|----------------|--------|-10----------|--------|--------|-9------|
A|----------------|----------------|--------|-------------|--------|--------|--------|
E|----------------|----------------|--------|-------------|--------|--------|--------|

   H.       
E|--------|
B|--------|
G|--------|
D|--------|
A|--------|
E|--------|  


Repeat from the beginning after this measure...

   E   E   E   E   E   E     E   E   E   E   E   E     Q.    Q    E     H.
E|-------------------------|-------------------------|----------------|--------|
B|-------------------------|-------------------------|----------------|--------|
G|-------------------------|-------------7-------7---|-9----------7---|--------|
D|-7---6---7---9---7---9---|-10--9---10------10------|-------10-------|-9------|
A|-------------------------|-------------------------|----------------|--------|
E|-------------------------|-------------------------|----------------|--------|

   E   E   E   E   E   E     E   E   E   E   E   E     H.       Q.    Q.      H.
E|-------------------------|-------------------------|--------|-------------|--------|
B|-------------------------|-------------------------|--------|-------------|--------|
G|-------------------------|-------------7-------7---|-9------|-------7-----|-10-----|
D|-7---6---7---9---7---9---|-10--9---10------10------|--------|-10----------|--------|
A|-------------------------|-------------------------|--------|-------------|--------|
E|-------------------------|-------------------------|--------|-------------|--------|

   H.       H.
E|--------|--------|
B|-10-----|-9------|
G|--------|--------|
D|--------|--------|
A|--------|--------|
E|--------|--------|