Login or Register to remove this ad. | Advertise Here

Illusionary World (Final Fantasy IV) Guitar Tab

Submitted: Jul 17, 2009 by movin_target

5
Average: 5 (2 votes)
Download | Listen
Game: Final Fantasy IV
Composer(s): Nobuo Uematsu
Style: Transcription
Series: Final Fantasy

AutoScroll: Slow | Medium | Fast
This is my very first tab, I'm sorry if mistakes were made and this sounds wrong,
and/or is poorly written. Enjoy!

                   Final Fantasy IV - Illusionary World Guitar Tab
                              Song by Nobuo Uematsu

                             Tabbed by: movin_target
                                    7-17-09 

E|--------------------------------------------------------------------------- 
B|--------------------------------------------------------------------------- \
G|--9----9----9-9----10--12--9----------7---9--------------------------------  \
D|--------------------------------10---------------9-------------------------   x2
A|---------------------------------------------------------------------------  /
E|--------------------------------------------------------------------------- /



E|--------------------------------------------------------------------------- 
B|---------------------------------------------------------------------------
G|--------------------------------9------------------------------------------
D|--7-6-7-9-7-9-10-9-10-12-10-12-------10--12--9-----------------------------
A|---------------------------------------------------------------------------
E|---------------------------------------------------------------------------



E|--------------------------------------------------------------------------- 
B|--------------------------------------------------------------10--------9--
G|--------------------------------9-------------------10---------------------
D|--7-6-7-9-7-9-10-9-10-12-10-12-------10------12----------------------------
A|---------------------------------------------------------------------------
E|---------------------------------------------------------------------------