Login or Register to remove this ad. | Advertise Here

Hey, Cid! (Final Fantasy IV) Guitar Tab

Submitted: Aug 10, 2009 by auriplane (Last updated: Feb 06, 2010)

5
Average: 5 (8 votes)
Download | Listen
Game: Final Fantasy IV
Composer(s): Nobuo Uematsu
Style: 2 or more instruments, Arrangement, Fingerstyle
Series: Final Fantasy

AutoScroll: Slow | Medium | Fast
                  Final Fantasy VI - Hey, Cid! GUITAR SOLO & DUET TAB
                                 Song by Nobuo Uematsu
           
                  Arranged & tabbed by auriplane (crystal@panix.com)


I made two versions of this tab.  One is a solo guitar tab, because everyone loves
those, and the other is a duet.  The duet is the exact same notes (a few are played
on different strings), but divided up between two guitars to make it easier.

I changed the harmony around a bit for this, but I think it retains its "Cidness" ^-^

Drop-D tuning, no capo.

Scroll down if you want the duet.



                                  SOLO GUITAR VERSION


     E  E  E  E  E  E  E  E     E  E  E  E  E  E  E  E       E  E  E  S S E  E  E  S S  
e||--------------------------|--------------------------||---0-----L-------------------|
B||--------------------------|-----------------0--2--3--||------------3-2-0-----L------|
G||--------------------------|--------------------------||*-----2------------2-----2-1-|
D||--2-----------2-----------|--2-----------2-----------||*--0--------2------------2---|
A||--------2-----------2-----|--------2-----------2-----||---------0------------0------|
D||--------------------------|--------------------------||---0------------0------------|


  E  E  E  S S E  E  S S S S    E  E  E  E  E  E  E  E     E  E  E  E  E  E  E  E   
-----------------------------|--------------------------|--------------------------|
------------------0--2-3-2---|--------------------------|-----------------0--2--3--|
-------------1-2-----------2-|--4--------------------L--|--------------------------|
--4-----L--4------0------0---|-----2-----2-----2-----2--|-----2-----2-----2-----2--|
-----5--0--5---------0-------|--------2-----------2-----|--------2-----------2-----|
--0------------0-------------|--2-----------2-----------|--2-----------2-----------|


  E  E  E  S S E  E  E  S S    E  E  E  S S E  E  S S S S    E  E  E  E  E  E  E  E   
--0-----L-------------------|-----------------------------|--------------------------|
-----------3-2-3-----L--2-0-|-----------------------0-2-3-|--0--------------------L--|
-----2------------2---------|--2-----L--2-1----1--2-------|--------------------------|
-----------2------------2---|-----0-----0---4--0------0---|-----2-----2-----2-----2--|
--------0------------0------|--------0------------0-------|--------2-----------2-----|
--0------------0------------|--0------------0-------------|--2-----------2-----------|


                    |--3--|     |--3-|       |--3--|  |--3--|                               
  E  E  E  E  E  E  E  E  E     Q    E  Q    E  E  E  E  E  E     Q.     S S E  E  S S S S  
--------------------0--0--0--|--2------------------------------|---------------------0-2---|
-----------------------------|-------3--3----------------------|--3------3-2-0--2--3-----3-|
--------------------2-----L--|--2----2--2-------------2-----2--|---------------------------|
-----2-----2--------2-----L--|--0-------L----4-----4-----4-----|-----------------------0-L-|
--------2--------------------|------------------5-----0--------|---------------------------|
--2-----------2-----2--2--2--|--0-------L----0-----------------|--0----------------0-L-----|


                                                |--3--|     |--3-|       |--3--|  |--3--|   
  E  S S E  E  E  E  E  E     E  E  E  E  E  E  E  E  E     Q    E  Q    E  E  E  E  E  E   
--0------------------------|--------------------0--0--0--|--2------------------------------|
-------0-0--------------L--|-----------------------------|-------3--3----------------------|
---------------------------|--------------------2-----L--|--2---------------------4-----4--|
-----2------2-----2-----2--|-----2-----2--------2-----L--|--4----4--4----4-----4-----4-----|
---------2-----------2-----|--------2--------------------|--2------------2--2--------------|
--2------------2-----------|--2-----------2-----2--2--2--|------------------------4--------|


  Q.     S S E  E  E  E     E  E  E  E  E  E  E  E     E  E  E  E  E  E  E  E     
----------------0--2--5--|--7--------------------L--|---------------------------||
--3------0-2-3-----------|--8--------------------L--|-----------------0--2--3---||
--4----------------------|--------------------------|--------------------------*||
-------------------------|-----5-----5-----5-----5--|-----2-----2--------------*||
--2----------------2--0--|--------5-----------5-----|--------2-----------2------||
-------------------------|--5-----------5-----------|--2-----------2------------||


                             ^                  
  E  E  E  E  E  E  E  E     W                  
--------------------------|-------------------||
--------------------------|--3----------------||
--------------------------|--2----------------||
-----2-----2-----2-----2--|--4----------------||
--------2-----------2-----|--5----------------||
--2-----------2-----------|--0----------------||





                                DUET VERSION - 1ST GUITAR



     E  E  E  E  E  E  E  E     E  E  E  E  E  E  E  E       Q.     S S Q.     S S  
e||--------------------------|--------------------------||---0---------------------|
B||--------------------------|-----------------0--2--3--||----------3-2-0----------|
G||--------------------------|--------------------------||*--------------------2-1-|
D||--------------------------|--------------------------||*------------------------|
A||--------------------------|--------------------------||-------------------------|
D||--------------------------|--------------------------||-------------------------|


  Q.     S S E  E  S S S S    W                   H        E  E  E  E     Q.     S S Q.     S S  
---------------------------|-------------------|-----------------------|--0---------------------|
----------------0--2-3-2---|--0----------------|--------------0--2--3--|---------3-2-3------2-0-|
-----------1-2-----------2-|-------------------|-----------------------|------------------------|
--4------4-----------------|-------------------|-----------------------|------------------------|
---------------------------|-------------------|-----------------------|------------------------|
---------------------------|-------------------|-----------------------|------------------------|


                                                                 |--3--|   
  Q.     S S E  E  S S S S    W                   H        E  E  E  E  E   
---------------------------|-------------------|-----------------0--0--0--|
---------------------0-2-3-|--0----------------|--------------------------|
--2------2-1----1--2-------|-------------------|--------------------------|
-------------4-------------|-------------------|--------------------------|
---------------------------|-------------------|--------------------------|
---------------------------|-------------------|--------------------------|


  |--3-|       |--3--|  |--3--|                                                      
  Q    E  Q    E  E  E  E  E  E     Q.     S S E  E  S S S S    E.  S Q    H         
--2------------------------------|---------------------0-2---|--0-------------------|
-------3--3----------------------|--3------3-2-0--2--3-----3-|------0-0----L--------|
------------------------2-----2--|---------------------------|----------------------|
---------------4-----4-----4-----|---------------------------|----------------------|
------------------5--------------|---------------------------|----------------------|
---------------------------------|---------------------------|----------------------|


                    |--3--|     |--3-|       |--3--|  |--3--|                             
  E  E  E  E  E  E  E  E  E     Q    E  Q    E  E  E  E  E  E     Q.     S S E  E  E  E   
--------------------0--0--0--|--2------------------------------|----------------0--2--5--|
-----------------------------|-------3--3----------------------|--3------0-2-3-----------|
-----------------------------|------------------------4-----4--|-------------------------|
-----------------------------|---------------4-----4-----4-----|-------------------------|
-----------------------------|------------------2--------------|-------------------------|
-----------------------------|---------------------------------|-------------------------|


                                                                              ^                  
  W                   E  E  E  E  E  E  E  E       E  E  E  E  E  E  E  E     W                  
--7----------------|---------------------------||--------------------------|-------------------||
--8----------------|-----------------0--2--3---||--------------------------|--3----------------||
-------------------|--------------------------*||--------------------------|--2----------------||
-------------------|--------------------------*||--------------------------|--4----------------||
-------------------|---------------------------||--------------------------|--5----------------||
-------------------|---------------------------||--------------------------|-------------------||





                                DUET VERSION - 2ND GUITAR



     E  E  E  E  E  E  E  E     E  E  E  E  E  E  E  E       E  E  E  E  E  E  E  E   
e||--------------------------|--------------------------||---------------------------|
B||--------------------------|--------------------------||---------------------------|
G||--------------------------|--------------------------||*-----2-----------2--------|
D||--2-----------2-----------|--2-----------2-----------||*--0--------2-----------2--|
A||--------2-----------2-----|--------2-----------2-----||---------0-----------0-----|
D||--------------------------|--------------------------||---0-----------0-----------|


  E  E  E  E  E  E  E  E     E  E  E  E  E  E  E  E     E  E  E  E  E  E  E  E   
--------------------------|--------------------------|--------------------------|
--------------------------|--------------------------|--------------------------|
--------------------------|--------------------------|--------------------------|
-----0-----0-----0-----0--|-----2-----2-----2-----2--|-----2-----2-----2-----2--|
--------0-----------0-----|--------2-----------2-----|--------2-----------2-----|
--0-----------0-----------|--2-----------2-----------|--2-----------2-----------|


  E  E  E  E  E  E  E  E     E  E  E  E  E  E  E  E     E  E  E  E  E  E  E  E   
--------------------------|--------------------------|--------------------------|
--------------------------|--------------------------|--------------------------|
-----2-----------2--------|--------------------------|--------------------------|
-----------2-----------2--|-----0-----0-----0-----0--|-----2-----2-----2-----2--|
--------0-----------0-----|--------0-----------0-----|--------2-----------2-----|
--0-----------0-----------|--0-----------0-----------|--2-----------2-----------|


                    |--3--|     |--3-|                                         
  E  E  E  E  E  E  E  E  E     Q    E  Q    Q    Q       Q.     Q.     E  E   
-----------------------------|-------------------------|----------------------|
-----------------------------|-------------------------|----------------------|
--------------------2-----L--|--2----2--2--------------|----------------------|
-----2-----2--------2-----L--|--0-------L--------------|-------------------0--|
--------2--------------------|--------------------0----|----------------------|
--2-----------2-----2--2--2--|--0-------L----0---------|--0-------------0-----|


                                               |--3--|     |--3-|                  
  E  E  E  E  E  E  E  E     E  E  E  E  E  E  E  E  E     Q    E  Q    Q    Q     
--------------------------|-----------------------------|-------------------------|
--------------------------|-----------------------------|-------------------------|
--------------------------|--------------------2-----L--|--2----------------------|
-----2-----2-----2-----2--|-----2-----2--------2-----L--|--4----4--4--------------|
--------2-----------2-----|--------2--------------------|--2------------2---------|
--2-----------2-----------|--2-----------2-----2--2--2--|--------------------4----|


  Q.     Q.     E  E     E  E  E  E  E  E  E  E     E  E  E  E  E  E  E  E     
----------------------|--------------------------|---------------------------||
----------------------|--------------------------|---------------------------||
--4-------------------|--------------------------|--------------------------*||
----------------------|-----5-----5-----5-----5--|-----2-----2--------------*||
--2-------------2--0--|--------5-----------5-----|--------2-----------2------||
----------------------|--5-----------5-----------|--2-----------2------------||


  E  E  E  E  E  E  E  E     W                  
--------------------------|-------------------||
--------------------------|-------------------||
--------------------------|-------------------||
-----2-----2-----2-----2--|-------------------||
--------2-----------2-----|-------------------||
--2-----------2-----------|--0----------------||




Duration Legend
---------------
W - whole
H - half
Q - quarter
E - 8th
S - 16th
. - note dotted
|-n-|  - n-tuplets


Tablature Legend
----------------
L - tied note

3 comments on Hey, Cid!

Hey this is absolutely

5

Hey this is absolutely outstanding, Auri! It definitely does retain it's "Ciddyness", and is very nostalgic as well :).

It's also great that you made two versions... that's a great idea for those that like to play with others or need a bit more practice before moving onto the solo version :)

It's kinda cliche to say, but this really does deserve 10 stars! 5 for the solo and 5 for the duet :D

Nice one. I like this tab.

5

Nice one. I like this tab. I'm a complete final fantasy freak. My friend even call me cloud. Some anyway. But it's hard to find completely acurate tabs like this. Astounding job

If it's any indication of

5

If it's any indication of difficulty, without any real practice I can play

1. the lead at about 80 bpm
2. the accompaniment at about 60 bpm

...but the solo arrangement? I fail to play that at even 20 bpm.