Login or Register to remove this ad. | Advertise Here

Epilogue (Final Fantasy IV) Guitar Tab

Submitted: Sep 08, 2011 by BacardiBreezer

0
Download | Listen
Game: Final Fantasy IV
Composer(s): Nobuo Uematsu
Style: Transcription
Series: Final Fantasy

AutoScroll: Slow | Medium | Fast
Epilogue
Final Fantasy 4
Composer: Nobuo Uematsu
Tabbed by Bacardibreezer
9/8/11

This is tabbed for a solo guitar.

Part A

e|---------------------------9~~-------7~~------11~----|
B|--2~~------0~----4~~------10~~-------7~~------12~----|
G|--2~~------------4~~---------------------------------|
D|-----------4~----------------------------------------|
A|-----------------------------------------------------|
E|-----------------------------------------------------|

e|-----12~---12-11------14~-|-----12~---11-12-14~-|--12-14-15~----14-15-17~-|-12-14-15~----14-15-17~-|--20---19~--|
B|--14-------------12-------|--14-----------------|-------------------------|------------------------|------------|
G|--------------------------|---------------------|-------------------------|------------------------|------------|
D|--------------------------|---------------------|-------------------------|------------------------|------------|
A|--------------------------|---------------------|-------------------------|------------------------|------------|
E|--------------------------|---------------------|-------------------------|------------------------|------------|

Part B (The Main Theme)

e|-----10--8--7-------8-7------10-----------------11-13-15~----13--/18--16~----15--13----12-13-15~---|
B|-----------------10-----8--------8~-------13-15----------------------------------------------------|
G|--7------------------------------------------------------------------------------------------------|
D|---------------------------------------------------------------------------------------------------|
A|---------------------------------------------------------------------------------------------------|
E|---------------------------------------------------------------------------------------------------|

e|-----------------------------------------|------------------------------------|-------------------------------------------|
B|------------------10--8------8-----------|-----------------10--8------8-------|------------------12--10------10-----------|
G|--7--10--9--10-----------10------9-------|--7--10--9--10----------10-----9~---|-9--12--11--12------------12------11-------|
D|------------------------------------10~--|------------------------------------|--------------------------------------12~--|
A|-----------------------------------------|------------------------------------|-------------------------------------------|
E|-----------------------------------------|------------------------------------|-------------------------------------------|

e|---------------------------------|--17~----17--15--13--12----------------20--19--20~---|
B|------------------12--10------10-|---------------------------15----13------------------|
G|--9--12--11--12-----------12-----|-----------------------------------------------------|
D|---------------------------------|-----------------------------------------------------|
A|---------------------------------|-----------------------------------------------------|
E|---------------------------------|-----------------------------------------------------|

e|--10~----10-8--------------13--12--13~--|------------------------------------------|
B|--------------11--8---------------------|--18~---16--15--16~------18--16------15~--|
G|---------------------10-----------------|---------------------------------17-------|
D|----------------------------------------|------------------------------------------|
A|----------------------------------------|------------------------------------------|
E|----------------------------------------|------------------------------------------|

Play Part B again, and end with:

e|------12--14--15~---|
B|--15----------------|
G|--------------------|
D|--------------------|
A|--------------------|
E|--------------------|

Part C

e|--7---10~----8-10-8---------|--7---10----8-10-8~~--|
B|----------------------8~~---|----------------------|
G|----------------------------|----------------------|
D|----------------------------|----------------------|
A|----------------------------|----------------------|
E|----------------------------|----------------------|

e|------------------------------------------------|
B|--13-13-13-13--13-11----------13-13-13-11--13~--|
G|---------------------10-------------------------|
D|------------------------11~---------------------|
A|------------------------------------------------|
E|------------------------------------------------| x2

Part D (The Theme of Love)

e|--12~----13---12---15~--|--12~----13---12---15~---16---18---20~~---|
B|------------------------|------------------------------------------|
G|------------------------|------------------------------------------|
D|------------------------|------------------------------------------|
A|------------------------|------------------------------------------|
E|------------------------|------------------------------------------|

e|-----------------20-20~------18-20-18---------------------18~---|
B|--20--18-------------------------------21--20--18---------------|
G|----------17--18-----------------------------------20--17-------|
D|----------------------------------------------------------------|
A|----------------------------------------------------------------|
E|----------------------------------------------------------------|

e|--16-18-16--15--13----------16-16~------15--16--18---16--15-----------|
B|------------------------13-----------------------------------16--18~--|
G|--------------------15------------------------------------------------|
D|----------------------------------------------------------------------|
A|----------------------------------------------------------------------|
E|----------------------------------------------------------------------|

Part E (The Prologue)

e|--------8----11--10--8---------------8---------------|----8-10---13--11--10-----8-7-10-8---10--8~---|
B|-----11--------------------11--10-11-----11-11-10~---|--8------8-------------------------8----------|
G|--10------10-----------------------------------------|----------------------------------------------|
D|-----------------------------------------------------|----------------------------------------------|
A|-----------------------------------------------------|----------------------------------------------|
E|-----------------------------------------------------|----------------------------------------------| x2

e|--15~----15--13~----------------------------------------13--16~---16--15~----11-13---13-14-13---13-14-13--11--10------|
B|----------------------15--16---16-15-13-12--13--15--16------------------------------------------------------------13~-|
G|----------------------------------------------------------------------------------------------------------------------|
D|----------------------------------------------------------------------------------------------------------------------|
A|----------------------------------------------------------------------------------------------------------------------|
E|----------------------------------------------------------------------------------------------------------------------|

Play Part E again, and end with:

e|---------------------------------------------------------------16~~---|
B|----------------------------11~-------------------16~----13-----------|
G|-----------------------------------------13-15--------------13--------|
D|---------------15~----12--------------13-------13---------------------|
A|-----13-15---------------13-------------------------------------------|
E|--13-------13---------------------------------------------------------|

e|--------------------------------------------------------------------------|
B|--------------------------------------------------------------------------|
G|--------------------------------------------------------------------------|
D|--------------------------------------------------------------------------|
A|--2--2--2---2-3------2--2--2---2-3------2--2--2---2-3------2--2--2---2-3--|
E|--------------------------------------------------------------------------|

Part F

e|--------------------------------------|
B|--7~----7--------10~-----8-10-8-7~----|
G|-----------8--------------------------|
D|--------------9-----------------------|
A|--------------------------------------|
E|--------------------------------------| x2

e|--7--7--8----7-----------------------------------|
B|---------------10-8-7h8p7---7~-----7-------------|
G|--------------------------9-----------9--7--9~---|
D|-------------------------------------------------|
A|-------------------------------------------------|
E|-------------------------------------------------| x2

Play Part F again.

e|-------------------------------------|--11------11-11---------11-11-11-----|
B|--12-----------12~-----12-12-12------|-----12---------12~--------------12~-|
G|-----13--13-13------------------13~--|-------------------------------------|
D|-------------------------------------|-------------------------------------|
A|-------------------------------------|-------------------------------------|
E|-------------------------------------|-------------------------------------| x2

e|--15--15------15-15-15-15------15-15-15-15-15-15--|
B|--------------------------------------------------|
G|--------------------------------------------------|
D|--------------------------------------------------|
A|--------------------------------------------------|
E|--------------------------------------------------|

Play Part F again twice, then:

e|-------------------------------------|--11------11-11---------11-11-11-----|
B|--12-----------12~-----12-12-12------|-----12---------12~--------------12~-|
G|-----13--13-13------------------13~--|-------------------------------------|
D|-------------------------------------|-------------------------------------|
A|-------------------------------------|-------------------------------------|
E|-------------------------------------|-------------------------------------| x2

e|--15--15------15-15-15-15------15-15-15-15-15-15-17-17------17-17-17-17-------17-17-17-17-17-17--|
B|-------------------------------------------------------------------------------------------------|
G|-------------------------------------------------------------------------------------------------|
D|-------------------------------------------------------------------------------------------------|
A|-------------------------------------------------------------------------------------------------|
E|-------------------------------------------------------------------------------------------------|

e|--15--15------15-15-15-15------15-15-15-15-15-15-17-17------17-17-17-17-------17-17-17-17-17-17--19~~--|
B|-------------------------------------------------------------------------------------------------------|
G|-------------------------------------------------------------------------------------------------------|
D|-------------------------------------------------------------------------------------------------------|
A|-------------------------------------------------------------------------------------------------------|
E|-------------------------------------------------------------------------------------------------------|

e|-----16-17-19-----------16-17-19----------16-17-19--------17-17-17-19---|
B|--19-----------------19----------------19-------------------------------|
G|------------------------------------------------------------------------|
D|------------------------------------------------------------------------|
A|------------------------------------------------------------------------|
E|------------------------------------------------------------------------|

e|-----------------------14-------14-16----14-16-|---------------------------------------------------------15----17----19~~--|
B|-----14-16-17-14-16-17----16-17-------17-------|-------------------------14-------14-16-17---17--17--17--------------------|
G|--16-------------------------------------------|-15----13-15-16-13-15-16----15-16------------------------------------------|
D|-----------------------------------------------|----16---------------------------------------------------------------------|
A|-----------------------------------------------|---------------------------------------------------------------------------|
E|-----------------------------------------------|---------------------------------------------------------------------------|